PrimaNota.ru - самый крупный в мире бесплатный архив песенных текстов, аккордов, табулатур и нот


Bullet For My Valentine - All These Things I Hate That Revolves Around Me - бас-таба, видео

Регистрация Запомнить меня
Войти через:  Facebook Google Twitter Vk Yandex Mail.ru

Bullet For My Valentine - All These Things I Hate That Revolves Around Me - бас-таба, видео

Печатать
Просмотров: 312
Уроки эстрадного вокала в Санкт-Петербурге
Gtr I (C G C F) - 'Bass'

  Q=188
 3/4
  Gtr I
  Wx48
|---------|
|---------|
|---------|
|---------|


    E Q  Q  E   H.        E Q  Q  E   H.
||------------|---------|-----------|---------|
||o-----------|---------|-----------|---------|
||o-----------|---------|-----------|---------|
||--6-6--6--6-|---------|-4-4--4--4-|---------|


  E Q  Q  E   Q  H      E Q  Q  E   E E Q  Q
|-----------|---------|-----------|--------------||
|-----------|---------|-----------|-------------o||
|-----------|---------|-----------|-------------o||
|-2-2--2--2-|-2--1----|-1S2--2--2-|-2s4-4--4-----||


  E E H      E E H      E E H      H.
|----------|----------|----------|-------||
|----------|----------|----------|-------||
|----------|----------|----------|-------||
|-6-6------|-6-6------|-6-6------|-6\----||


    H    +E   E    Q  H      E E +Q   +E   E    Q  H
||---------------|---------|------------------|---------|
||o--------------|---------|------------------|---------|
||o--------------|---------|------------------|---------|
||--6----(6)-(6)-|-6-------|-6s4-(4)--(4)-(4)-|-4-------|


  E E +Q   +E   E    Q  H      H    +E   E    Q  H     3x
|------------------|---------|--------------|----------||
|------------------|---------|--------------|---------o||
|------------------|---------|--------------|---------o||
|-4s2-(2)--(2)-(2)-|-2-------|-2----(2)-(2)-|-2--------||


  H    +E   E    Q  H      E E +Q   +E   E    Q  H
|--------------|---------|------------------|---------|
|--------------|---------|------------------|---------|
|--------------|---------|------------------|---------|
|-6----(6)-(6)-|-6-------|-6s4-(4)--(4)-(4)-|-4-------|


  E E +Q   +E   E    Q  H      H    +E   E    H.
|------------------|---------|--------------|-------||
|------------------|---------|--------------|-------||
|------------------|---------|--------------|-------||
|-4s2-(2)--(2)-(2)-|-2-------|-2----(2)-(2)-|-2-----||


  E E E E E E   E E E E E E   S S E E E E E   S S E E E E E
|-------------|-------------|---------------|---------------|
|-------------|-------------|---------------|---------------|
|-------------|-------------|---------------|---------------|
|-4-4-4-4-4-4-|-4-4-4-4-4-4-|-4s6-6-6-6-6-6-|-6s4-4-4-4-4-4-|


  S S E E E E E   E E E E E E   S S E E E E E   S S E E E E E
|---------------|-------------|---------------|----------------|
|---------------|-------------|---------------|----------------|
|---------------|-------------|---------------|----------------|
|-4s2-2-2-2-2-2-|-2-2-2-2-2-2-|-2s6-6-6-6-6-6-|-6s4-4-4-4-4-4--|


  S S E E E E E   E E E E E E   S S E E E E E   S S E E E E E
|---------------|-------------|---------------|----------------|
|---------------|-------------|---------------|----------------|
|---------------|-------------|---------------|----------------|
|-4s2-2-2-2-2-2-|-2-2-2-2-2-2-|-2s6-6-6-6-6-6-|-6s4-4-4-4-4-4--|


                                ~~~~~~~~~~~~~~
  S S E E E E E   E E E E E E   H.        +H.
|---------------|-------------|---------|--------||
|---------------|-------------|---------|--------||
|---------------|-------------|---------|--------||
|-4s2-2-2-2-2-2-|-2-2-2-2-2-2-|-1-------|-(1)----||


    E Q  Q  E   H.        E Q  Q  E   H.
||------------|---------|-----------|---------|
||o-----------|---------|-----------|---------|
||o-----------|---------|-----------|---------|
||--6-6--6--6-|---------|-4-4--4--4-|---------|


  E Q  Q  E   Q  H      E Q  Q  E   E E Q  Q     4x
|-----------|---------|-----------|--------------||
|-----------|---------|-----------|-------------o||
|-----------|---------|-----------|-------------o||
|-2-2--2--2-|-2--1----|-1S2--2--2-|-2s4-4--4-----||


                                               4/4
    E E H      E E H      E E H      E E H      H    H
||-----------|----------|----------|----------|------------||
||o----------|----------|----------|----------|-----------o||
||o----------|----------|----------|----------|-----------o||
||--6-6------|-6-6------|-6-6------|-6-6------|-2----4-----||


                         2/4       4/4
    E E H      E E H      E E E E   E E H    E E   H    H
||-----------|----------|---------|--------------|------------||
||o----------|----------|---------|--------------|-----------o||
||o----------|----------|---------|--------------|-----------o||
||--6-6------|-6-6------|-6-6-6-6-|-6-6------6-6-|-2----4-----||


 3/4
  E     +E  E     +E  E     +E    E     +E  E     +E  E     +E
|-------------------------------|-------------------------------||
|-------------------------------|-------------------------------||
|-------------------------------|-------------------------------||
|-6b6.5-(6)-6b6.5-(6)-6b6.5-(6)-|-6b6.5-(6)-6b6.5-(6)-6b6.5-(6)-||


    E Q  Q  E   H.        E Q  Q  E   Q  Q  Q   4x
||------------|---------|-----------|-----------||
||o-----------|---------|-----------|----------o||
||o-----------|---------|-----------|----------o||
||--2-2--2--2-|---------|-4-4--4--4-|-6--6--6---||


  H.        +H.        +H.        +H.
|---------|----------|----------|----------|
|---------|----------|----------|----------|
|---------|----------|----------|----------|
|-2-------|-(2)------|-(2)------|-(2)------|


  +H.        +H.        E E E E E E   E E E E E E
|----------|----------|-------------|----------------||
|----------|----------|-------------|----------------||
|----------|----------|-------------|----------------||
|-(2)------|-(2)------|-2-1-2-1-2-1-|-2-1-2-1-2------||


  E E E E E E   Q  H      E E E E E E   Q  H
|-------------|---------|-------------|---------|
|-------------|---------|-------------|---------|
|-------------|---------|-------------|---------|
|-6-6-6-6-6-6-|-6-------|-4-4-4-4-4-4-|-4-------|


  E Q  Q  E   Q  H      E Q  Q  E   E E Q  Q
|-----------|---------|-----------|-------------|
|-----------|---------|-----------|-------------|
|-----------|---------|-----------|-------------|
|-2-2--2--2-|-2--1----|-1S2--2--2-|-2s4-4--4----|


  E Q  Q  E   H.        E Q  Q  E   H.
|-----------|---------|-----------|---------|
|-----------|---------|-----------|---------|
|-----------|---------|-----------|---------|
|-6-6--6--6-|---------|-4-4--4--4-|---------|


  E Q  Q  E   Q  H      E Q  Q  E   E E Q  Q
|-----------|---------|-----------|-------------|
|-----------|---------|-----------|-------------|
|-----------|---------|-----------|-------------|
|-2-2--2--2-|-2--1----|-1S2--2--2-|-2s4-4--4----|


  E E E E E E   H.        E Q  Q  E   H.
|-------------|---------|-----------|---------|
|-------------|---------|-----------|---------|
|-------------|---------|-----------|---------|
|-6-6-6-6-6-6-|---------|-4-4--4--4-|---------|


  E Q  Q  E   Q  H      E Q  Q  E   E E Q  Q
|-----------|---------|-----------|-------------|
|-----------|---------|-----------|-------------|
|-----------|---------|-----------|-------------|
|-2-2--2--2-|-2--1----|-1S2--2--2-|-2s4-4--4----|


  E Q  Q  E   H.        E Q  Q  E   H.
|-----------|---------|-----------|---------|
|-----------|---------|-----------|---------|
|-----------|---------|-----------|---------|
|-6-6--6--6-|---------|-4-4--4--4-|---------|


  E Q  Q  E   Q  H      E Q  Q  E   E E Q  Q
|-----------|---------|-----------|-------------|
|-----------|---------|-----------|-------------|
|-----------|---------|-----------|-------------|
|-2-2--2--2-|-2--1----|-1S2--2--2-|-2s4-4--4----|


                                             4/4
  E E H      E E H      E E H      E E H      H    H      Q  +Q    H
|----------|----------|----------|----------|-----------|---------------*|
|----------|----------|----------|----------|-----------|---------------*|
|----------|----------|----------|----------|-----------|---------------*|
|-6-6------|-6-6------|-6-6------|-6-6------|-2----4----|-6--(6)\-------*|


Duration Legend
---------------
W - whole; H - half; Q - quarter; E - 8th; S - 16th; T - 32nd; X - 64th; a - acciaccatura
+ - note tied to previous; . - note dotted; .. - note double dotted
Uncapitalized letters represent notes that are staccato (1/2 duration)
Irregular groupings are notated above the duration line
Duration letters will always appear directly above the note/fret number it represents the
duration for.  Duration letters with no fret number below them represent rests.  Multi-
bar rests are notated in the form Wxn, where n is the number of bars to rest for.  Low
melody durations appear below the staff

Tablature Legend
----------------
 h   - hammer-on
 p   - pull-off
 b   - bend
 pb  - pre-bend
 r   - bend release (if no number after the r, then release immediately)
 /\  - slide into or out of (from/to "nowhere")
 s   - legato slide
 S   - shift slide
  - natural harmonic
[n]  - artificial harmonic
n(n) - tapped harmonic
 ~   - vibrato
 tr  - trill
 T   - tap
 TP  - trem. picking
 PM  - palm muting
\n/  - tremolo bar dip; n = amount to dip
 \n  - tremolo bar down
 n/  - tremolo bar up
/n\  - tremolo bar inverted dip
 =   - hold bend; also acts as connecting device for hammers/pulls
 <>  - volume swell (louder/softer)
 x   - on rhythm slash represents muted slash
 o   - on rhythm slash represents single note slash

Misc Legend
-----------
 |  - bar
||  - double bar
||o - repeat start
o|| - repeat end
*|  - double bar (ending)
 :  - bar (freetime)
 $  - Segno
 &  - Coda
Tempo markers -  = BPM(8/16=s8/s16), where s8 = swing 8ths, s16 = swing 16ths
Добавлено: 21.08.2013
Другие материалы по этой песне:
  • Аккорды и текст

Страница создана 21.08.2013
http://primanota.ru/bullet-for-my-valentine/all-these-things-i-hate-that-revolves-around-me-chords.htm
Привет, Гость.
Предлагаем пройти революционный курс по гитаре.
Подарок от PrimaNota.Ru, забирай!