PrimaNota.ru - самый крупный в мире бесплатный архив песенных текстов, аккордов, табулатур и нот


Bullerfnis - Hvor Er Alle Drommene Du Dromte - аккорды и текст

Регистрация Запомнить меня
Войти через:  Facebook Google Twitter Vk Yandex Mail.ru

Bullerfnis - Hvor Er Alle Drommene Du Dromte - аккорды и текст

Печатать
Просмотров: 76
Hvor Er Alle Drommene Du Dromte
Bullerfnis
   ____________________________________
  / Bullerfnis                        /
 / Hvor er alle drømmene, du drømte  /
/___________________________________/


Intro-akkord:
 Ab/Bb
+=---=---=---=---+


OmkvæD:
 Eb      F        Dm      Gm       Cm      G7       Cm      Eb/Bb
+=---=---=---=---+=---=---=---=---+=---=---=---=---+=---=---=---=---+

                                                   1.
 F/A              Bb      Gm       C7               F7
+=---=---=---=---+=---=---=---=---+=---=---=---=---+=---=---=---=---+

                                          2.
                                           F       F/Eb     Bb/D    F7/C
                                          +=---=---=---=---+=---=---=---=---+


Vers:
 Bb      F        Gm      Eb       Bb      Dm7      Eb      G7/D
+=---=---=---=---+=---=---=---=---+=---=---=---=---+=---=---=---=---+

 Cm               Cm      Cm/Bb    F/A     F        Bb
+=---=---=---=---+=---=---=---=---+=---=---=---=---+=---=---=---=---+

 Bb      Bb7M     Bb7              Eb(2)   Bb       Cm7 C7  Fsus4 F
+=---=---=---=---+=---=---=---=---+=---=---=---=---+=---=---=-----=---+

 Bb      F/A      Gm7              Cm7     F7       Bb(2)   Ab/Bb Bb
+=---=---=---=---+=---=---=---=---+=---=---=---=---+=---=---=-----=---+



 AKKORDER
************
(capo på 3. bånd)

OmkvæD:
 F/G    C  D    Bm Em   Am E7  Am C/G  D/F#  G Em7   A7   D7    D D/C  G/B D7/A
|-1--||-0--2--|-2--0--|-0--0--|-0--0--|-2--|-3--0--|-0--|-2--||-2--2--|-3--2--|
|-1--||-1--3--|-3--0--|-1--3--|-1--1--|-3--|-3--0--|-2--|-1--||-3--3--|-3--1--|
|-2--||-0--2--|-4--0--|-2--1--|-2--0--|-2--|-0--0--|-0--|-2--||-2--2--|-0--2--|
|-3--||-2--0--|-4--2--|-2--2--|-2--2--|-0--|-0--0--|-2--|-0--||-0--x--|-x--0--|
|-x--||-3-----|-2--2--|-0--2--|-0--x--|-x--|-2--2--|-0--|----||----3--|-2--0--|
|-3--||-------|----0--|----0--|----3--|-2--|-3--0--|----|----||-------|-------|

Vers:
  G  D    Em C    G Bm7  Eb G7/D  Am  Am Am/G D/F# D   G
|-3--2--|-0--0--|-3--2--|-0--0--|-0--|-0--0--|-2--2--|-3--|
|-3--3--|-0--1--|-3--3--|-1--3--|-1--|-1--1--|-3--3--|-3--|
|-0--2--|-0--0--|-0--2--|-0--1--|-2--|-2--2--|-2--2--|-0--|
|-0--0--|-2--2--|-0--4--|-2--2--|-2--|-2--2--|-0--0--|-0--|
|-2-----|-2--3--|-2--2--|-3--2--|-0--|-0--x--|-x-----|-2--|
|-3-----|-0-----|-3-----|-------|----|----3--|-2-----|-3--|

  G G7M   G7 C G  Am7 A7 Dsus4 D  G D/F# Em7  Am7 D7  G(2) F/G G
|-3--2--|-1--|-0--3--|-3--3--3--2--|-3--2--|-0--|-0--2--|-3---------|
|-3--3--|-3--|-3--3--|-1--2--3--3--|-0--3--|-0--|-1--1--|-0---1--0--|
|-0--4--|-4--|-0--0--|-0--0--2--2--|-0--2--|-0--|-0--2--|-2---2--0--|
|-0--0--|-0--|-2--0--|-2--2--0--0--|-0--0--|-0--|-2--0--|-0---3--0--|
|-2--x--|-x--|-3--2--|-0--0--------|-x--x--|-2--|-0-----|-x---x--x--|
|-3--3--|-3--|----3--|-------------|-3--2--|-0--|-------|-3---3--3--|



 TEKST
*********
Hvor er alle drømmene, du drømte,
og din tro på verden af i går?
Hvor er alle drømmene, du drømte,
er de druknet i en strøm af år?
Hvor er alle drømmene, du drømte,
og det håb, der leved' i dit sind?
Hvor er alle drømmene, du drømte,
er de drevet bort med vejr og vind?

Du kom til verden i en tid,
da der også fandtes strid,
men du så det ikke hver dag i TV.
En smed der skoed' hesten hove,
hesten foran bondens plove,
var et barndomssyn, du ofte fik at se.
Den lille skole i din by
var ikke smart og dyr og ny.
En enkelt lærer underviste her.
Og her lå en købmandsgård
gennem mere end hundred' år.
Nu ligger motorvejen her.

Hvor alle drømmene, du drømte ...

Den nye by er kold og grå.
Her går du og tænker på
de fjerne somre, som der var engang.
Du bor i hus af stål og glas,
har måske nok lidt bedre plads,
men hører ikke noget til fuglesang.
Smedjen fik man revet ned,
og nu bor den gamles smed
i "De gamles hjem" bag lukkede teaktræsdøre.
Og til skrædderen blev der sagt:
"De kan blive parkeringsvagt!"
Ingenting er mer' som før.

Hvor alle drømmene, du drømte ...


+--------------------------------------------------------------------------+
Jon Sebastian Frederiksen - 13th /March /12
Just mail me at Maitinin@gmail.com with questions, comments and corrections!
Добавлено: 07.09.2013
Другие материалы по этой песне:
  • Аккорды и текст

Страница создана 25.08.2013
http://primanota.ru/bullerfnis/hvor-er-alle-drommene-du-dromte-chords.htm
Привет, Гость.
Предлагаем пройти революционный курс по гитаре.
Подарок от PrimaNota.Ru, забирай!