PrimaNota.ru - самый крупный в мире бесплатный архив песенных текстов, аккордов, табулатур и нот


Bulldoze - The Truth - таба, видео

Регистрация Запомнить меня
Войти через:  Facebook Google Twitter Vk Yandex Mail.ru

Bulldoze - The Truth - таба, видео

Печатать
Просмотров: 150
Bulldoze
"The Truth"
------------

Part1:
||---------------------||
||---------------------||
||---------------------||
||--1-0-5-8-7--3-6666--||
||--1-0-5-8-7--3-6666--||
||--1-0-5-8-7--3-6666--||

Part2:
||------------------------------||
||------------------------------||
||------------------------------||
||--55555-511166-33333-366-633--||
||--55555-511166-33333-366-633--||
||--55555-511166-33333-366-633--||

Part3:
||--------------------||
||--------------------||
||--------------------||
||--1-0-6-5-1-0-66-5--||
||--1-0-6-5-1-0-66-5--||
||--1-0-6-5-1-0-66-5--||
            (-55-3)

Part1
Part2
Part1
Part3

tabbed by gxno
Добавлено: 18.06.2012
Вам также может быть интересно:
Другие материалы по этой песне:
  • Аккорды и текст

Страница создана 30.03.2012
http://primanota.ru/bulldoze/the-truth-chords.htm
Привет, Гость.
Предлагаем пройти революционный курс по гитаре.
Подарок от PrimaNota.Ru, забирай!