PrimaNota.ru - самый крупный в мире бесплатный архив песенных текстов, аккордов, табулатур и нот


Buklod - Kanlungan - таба, видео

Регистрация Запомнить меня
Войти через:  Facebook Google Twitter Vk Yandex Mail.ru

Buklod - Kanlungan - таба, видео

Печатать
Просмотров: 171
Уроки эстрадного вокала в Санкт-Петербурге
Kanlungan – Noel Cabangon
Date 06/25/2005
Tabbed by: Glen E. A.
Email me @: gl3n_00019@yahoo.com
Comments & Suggestion are welcome just email me.

NOTE: may konting nabago sa intro at ending… check nio nalang, nagkaerror me s pagtab at 
iba nilagyan ko n lang ng adlib para ok…..!

Nasubukan ko ung ibang version na ginawa nila pero mukhang di maganda pakinggan kaya 
ko to. As usual turo lang rin sa ken to ng frend kong malufet sa gitara sa acoustic. Kung 
kayong gusto matutunan na song tab send nio na lng saken at subukan ko ipatab sa kanya ok!

Actually medyo madali lang ito gitarahin… magkakalapit lang kc ung nota	..
Ung version na to pang solo acoustic kaya ok
>>Rate this pls!!!

Intro:
e|-0h2-----3-------3---------|---------------------------------0---|
B|-3-----3-------3-----3-3---|-------3--------3---------3--3-----3-|
G|-----2-------0-------0-----|---------2--------0-----0------------|
D|-0-------------------------|-----0--------0-------2--------2-----|
A|-----------2-------2-------|-----------------------------0-------|
E|---------------------------|---3--------2-------0----------------|

e|----------------------------------|
B|-------3-------3--------3--3-3----|
G|---------2-------0-----0---0------|
D|-----0-------0-------2------------|
A|---------------------------0------|
E|---3-------2-------0--------------|

       D	     Bm7      G	   		 D	     G		  A
|------0h2--------------------------------0------0h2----------------------------------------2---------|
|------3------3-------3----------3---3------3----3-----3-----3-------3--0h2-------2-3-----------3-----|
|----2--------2-----2----------0--------0------------2-------0-----0----2-------2---2-----2--------2--|
|--0--------------4----------0-------------------0---------------0------------2--------4------4-------|
|-------------2----------------------0----------------------------------0-----------2-----------------|
|--------------------------3---------------------------------3----------------------------------------|
    Pana-panahon      ang pagkakataon       maibabalik  ba  ang kaha……….pon ………..

 >>Intro 2nd part
        D/G	   D/F#		Em	A		       D/G
 e|-----------------------------------------0------------------------------|
B|------3----------3------------3-----3-------3-------3---------3----------|
G|--------2----------0-------0--------------------------2----------0-------|
D|----0---------0----------2-------------2----------0---------0------------|
A|------------------------------------0------------------------------------|
E|--3---------2----------0------------------------3---------2--------------|


			Verse:
      Em		A7	   G		A	      Bm7		G
|-------------------------------------------------2-----------------------|
|--------3--3------------3-----------0h2---3-----------3-------------3----|
|------0----0--0-------0-------------2----------2----2---2---------0------|
|----2---------------0------------2-----------4------------------0--------|
|-----------0-------------------0----------2------------------------------|
|--0---------------3------------------------------------------3-----------|
		Natatanda ……an mo pa  ba?             Nung tayong dala-

      A		   D	     Bm7	G	    A		Bm6
|------------0-------0h2-------------------------------------0------------5-----2------------|
|-------0h2----------3------3-------3------------3--------2---------------3---------------3--|
|-------2-----------2-------2-----2------------0----------2-----------2-----------------0----|
|----2------------0-------------4------------0----------2-----------4---------4-------0------|
|--0------------------------2-------------------------0-----------2-------2------------------|
|-----------------------------------------3--------------------------------------3-----------|
  way     unang  nagkita          panahon ng kamusmu   -  san               Sa piling  ng

	A	    D	     Bm7	G	      A		Bm7		      G
|------------0-------0h2-----------------------------------0------------2----------------------|
|-------0h2----------3------3------3-----------3--------2---------------3----3------------3----|
|-------2-----------2-------2----2-----------0----------2------------2-----2---2-------0-------|
|----2------------0------------4-----------0----------2------------4-----------------0---------|
|--0------------------------2------------------------0------------2------2---------------------|
|---------------------------------------3------------------------------------------3-----------|
   Mga        bulaklak at   halaman      doon tayo nagsimula 			mangarap

   A		    D
|--------------------------0h2--|
|--0h2------2--------3----------|
|--2-------2--------2-----------|
|---------2--------0-------0----|
|--0----------------------------|
|-------------------------------|
   At              tumula…..         >> back to  2nd intro then verse

		G	      A		Bm7		G	   A	        D		Bm7
|-----------------------------------------------2----------------------------0--------0h2--------------|
|----3-3------------3----------0h2-----------3-----3------------3---------0h2---------3-----3-----3----|
|--2--------------0------------2-----------2------2---2--------0----------2---------2-------2---2------|
|---------------0------------2-----------4--------------------0---------2---------0-----------4--------|
|--------------------------0-----------2-------2----------------------0---------------------2----------|
|------------3----------------------------------------------3------------------------------------------|
 Ang mga   pu………no't         halaman    ay kabiyak   ng ating        gunita……

	G	D	Bm7	Bm7/A		   E/G#		     G		A7sus
|---------------------------------------------------------------------------------0-----------|
|----------3-------2---------3------------3--------------5-------------3--------3------0h2-0--|
|-------0--------2---------2------------2---------------4-------------0---------0------0------|
|----0---------2---------4-----------4----------------2-------------0---------2---------------|
|------------0---------2----------------------------------------------------0----------0------|
|--3-------------------------------5---------------4-------------3----------------------------|
 Sa paglipas ng panahon          bakit             kailangan   ding           lumisan

>>Do the tab in panapanahon…… then verse……

>>Ending
         D/G		D/F#		Em	A		D/G	D/F#
|----------------------------------------------0-------------------------------------|
|-------3----------3-----------------3----3-------3---------3--------------3---------|
|----------2----------0---------0------------------------------2--------------0------|
|----0----------0------------2---------------2-----------0--------------0------------|
|-----------------------------------------0------------------------------------------|
|--3----------2------------0---------------------------3-------------2---------------|

			D		Dsus4
|-------------------------0--------0--------------------------------------------------|
|-------------3-------3-----3---------3---2---3---------------------------------------|
|---------0-------------------2---------2-----2---------------------------------------|
|-----2---------------------------------------0---------------------------------------|
|-------------------------0--------0--------------------------------------------------|
|---0---------------------------------------------------------------------------------|

Thats all folks……..


lyrics
Kanlungan - Noel Cabangon

intro
pana-panahon ang pagkakataon
maibabalik ba ang kahapon

verse 1
natatandaan mo pa ba
n'ung tayong dal'way unang magkita
panahon ng kamusmusan
sa piling ng mga bulaklak at halaman
doon tayo nagsimula
mangarap at tumula

verse 2
natatandaan mo pa ba
inukit kong puso sa punong mangga
at ang inalay kong gumamela
magkahawak kamay sa dalampasigan
malayang tulad ng mga ibon
ang gunita ng ating kahapon

chorus1
ang mga puno't halaman
ay kabiyak ng ating gunita
sa paglipas ng panahon
bakit kailangan d'ing lumisan

panapanahon ang pagkakataon
maibabalik ba ang kahapon

interlude

verse3
ngayong ikaw ay nagbalik
tulad ko rin ang 'yong pananabik
makita ang dating kanlungan
tahanan ng ating tula at pangarap
ngayon ay naglaho na
saan hahanapin pa

chorus 2
lumilipas ang panahon
kabiyak ng ating gunita
ang mga puno't halaman
bakit kailangang lumisan

pana-panahon ang pagkakataon
maibabalik ba ang kahapon

(strumming part)

chorus 2
lumilipas ang panahon
kabiyak ng ating gunita
ang mga puno't halaman
bakit kailangang lumisan

pana-panahon ang pagkakataon
maibabalik ba ang kahapon

===========================================
Rate naman dyan!....napagod ako kakatab e.. :)hehe
Добавлено: 27.02.2012
Другие материалы по этой песне:
  • Аккорды и текст

Страница создана 27.02.2012
http://primanota.ru/buklod/kanlungan-chords.htm
Привет, Гость.
Предлагаем пройти революционный курс по гитаре.
Подарок от PrimaNota.Ru, забирай!