PrimaNota.ru - самый крупный в мире бесплатный архив песенных текстов, аккордов, табулатур и нот


Built To Spill - Traces - текст песни, таба, видео

Регистрация Запомнить меня
Войти через:  Facebook Google Twitter Vk Yandex Mail.ru

Built To Spill - Traces - текст песни, таба, видео

Печатать
Просмотров: 151
Built to Spill - TRACES - from You In Reverse

Main Riff
e|-------2-3-------2-3--------------------------------------------------|
B|-0-1-0-----0-1-0-----1-0----------------------------------------------|
G|----------------------------------------------------------------------|
D|----------------------------------------------------------------------|
A|----------------------------------------------------------------------|
E|----------------------------------------------------------------------|

Verse Part One
Emin,       G,      Amin,        C
Day          light                  can never really
hide          what's      alive
I know it's hard sometimes For you to tell

Verse Part Two
Bmin               C                    D       Em        Bmin
where you end And where the world begins

Chorus
C                      C                   Emin                  D
And though the parts of it that matter change

C
All traces disintegrate

Solo – not 100% but these riffs all fit, as does anything in Emin played melodically

                            Play 3 times then                                     Repeat 
thing 4 times
e|-7-5-3-2-3------------7-7-7-7-7-7-7-7---------------------------------|
B|----------------------------------------------------------------------|
G|----------------------------------------------------------------------|
D|----------------------------------------------------------------------|
A|----------------------------------------------------------------------|
E|----------------------------------------------------------------------|

Then keep sliding between these two notes for 4 bars

e|----------------------------------------------------------------------|
B|-8-10-----------------------------------------------------------------|
G|----------------------------------------------------------------------|
D|----------------------------------------------------------------------|
A|----------------------------------------------------------------------|
E|----------------------------------------------------------------------|
Slide down from each note to the next, play 4 times
e|----------------------------------------------------------------------|
B|-12-10-8-7-8-7-5------------------------------------------------------|
G|----------------------------------------------------------------------|
D|----------------------------------------------------------------------|
A|----------------------------------------------------------------------|
E|----------------------------------------------------------------------|
Play this riff 4 times to finish
e|----------------------------------------------------------------------|
B|-12-12-12-10-12-10----------------------------------------------------|
G|----------------------------------------------------------------------|
D|----------------------------------------------------------------------|
A|----------------------------------------------------------------------|
E|----------------------------------------------------------------------|
Добавлено: 01.06.2012
Другие материалы по этой песне:
  • Аккорды и текст

Страница создана 01.06.2012
http://primanota.ru/built-to-spill/traces-chords.htm
Привет, Гость.
Предлагаем пройти революционный курс по гитаре.
Подарок от PrimaNota.Ru, забирай!