PrimaNota.ru - самый крупный в мире бесплатный архив песенных текстов, аккордов, табулатур и нот


Built To Spill - Some Other Song - аккорды и текст, видео

Регистрация Запомнить меня
Войти через:  Facebook Google Twitter Vk Yandex Mail.ru

Built To Spill - Some Other Song - аккорды и текст, видео

Печатать
Просмотров: 80
Авторы: Built to Spill

Some Other Song
Built To Spill
---------------------------------------------------------------------------
                             SOME OTHER SONG - Built To Spill
--------------------------------------------------------------------------
Tabbed by:Benson
E-mail:dontcallmebenny@hotmail.com

A track from the new album Untethered Moon

Tuning:Standard

e|-------------------------|
B|-------------------------|
G|-------------------------|
D|-2-2---------------------|
A|-2-2--3---3-5------------| PLAY 4 TIMES
E|-0-0----3----------------|

e|-------------------------|
B|-------------------------|
G|-2-2---------------------|
D|-2-2---------------------|
A|-0-0--3---3-5------------| PLAY 2 TIMES
E|-------3-----------------|

e|-------------------------|
B|-------------------------|
G|-------------------------|
D|-2-2---------------------|
A|-2-2--3---3-5------------| PLAY 2 TIMES
E|-0-0----3----------------|

Then one bar each of C, F, C

Melody line 

e|------------------------------------------------------------------------|
B|-5-5-7------5-5-7-8-7-5-------------------------------------------------|
G|--4---5------4---------5------------------------------------------------| Over the first riff
D|------------------------------------------------------------------------|
A|------------------------------------------------------------------------|
E|------------------------------------------------------------------------|


e|-5-5-7-----5-5-7-8-7-5--------------------------------------------------|
B|--5---6-----5---------6-------------------------------------------------|
G|------------------------------------------------------------------------| Over the second riff
D|------------------------------------------------------------------------|
A|------------------------------------------------------------------------|
E|------------------------------------------------------------------------|

Then one bar each of C, F, C

Verse 1:
C                 F             C
I can't wait to get back home to you
C                 F                    C
Talk about the things that we've been through

Am               F               C        
There is nothing I would rather do
Am               F               C        
Something's gotta happen pretty soon

Chorus:
Dm       F           C
And it's some other song

Verse 2:
C                 F             C
I don't know exactly what to do
C                 F             C
You are all I ever thought I knew
Am               F                C        
I can live without us feeling blue
Am               F                C        
I can live with that, how bout you?

Chorus:
Dm       F           C
And it's some other song
Dm       F           C
Yeah it's some other song

Bridge:
Dm      F         C        G
I don't know how to never fall apart
Dm      F         C        G
Please tell me how to never fall apart
Dm      F         C        G
No matter how you ever fall
Добавлено: 28.09.2015
Вам также может быть интересно:
Другие материалы по этой песне:
  • Аккорды и текст

Страница создана 28.09.2015
http://primanota.ru/built-to-spill/some-other-song-chords.htm
Привет, Гость.
Предлагаем пройти революционный курс по гитаре.
Подарок от PrimaNota.Ru, забирай!