PrimaNota.ru - самый крупный в мире бесплатный архив песенных текстов, аккордов, табулатур и нот


Built To Spill - So - аккорды и текст, видео

Регистрация Запомнить меня
Войти через:  Facebook Google Twitter Vk Yandex Mail.ru

Built To Spill - So - аккорды и текст, видео

Печатать
Просмотров: 51
Уроки эстрадного вокала в Санкт-Петербурге
Авторы: Built to Spill

So
Built To Spill
---------------------------------------------------------------------------
                             So - Built to Spill
---------------------------------------------------------------------------
Tabbed by:Benson
E-mail:dontcallmebenny@hotmail.com

Tuning:Standard

The song starts with a jam based around E major. The song kicks in at 1:05, that's where this tab begins:

E
Where, where did you go? Why did you leave? What did you know?
How, how does it feel when you're the one who is alone

A7M  
Someone, somewhere, somehow says so....

Riff A       
e|------------------------------------------------------------------------|
B|------------------------------------------------------------------------|
G|------------------------------------------------------------------------|
D|-9--9\6-4/6--6/9-9/11--11\9-4/6-----------------------------------------|
A|------------------------------------------------------------------------|
E|------------------------------------------------------------------------|

e|------------------------------------------------------------------------|
B|------------------------------------------------------------------------|
G|------------------------------------------------------------------------|
D|-9--9\6-4/6--6\4-2-2----------------------------------------------------|
A|------------------------------------------------------------------------|
E|------------------------------------------------------------------------|


E            F#m               A7M               E    
Up, up every night, down in my room, out of my mind

E           F#m                A7M                            
Lost, lost in the light, looking for you I found...

Riff B   

e|------------------------------------------------------------------------|
B|------------------------------------------------------------------------|
G|--4---------------------------------------------------------------------|
D|----6-4-6-2-------------------------------------------------------------|
A|------------------------------------------------------------------------|
E|------------------------------------------------------------------------|

A7M  
Nothing, nowhere, no-one....

Then E until the next section:

E
If nobody came to the door, then why would you open the door?
    
E                    F#m                         A7M                            
She threw a party and everyone .... Would you open the door?

E                             F#m                          A7M                            
If you got in the car and the windows were stars would you open the door?

Outro is just a jam between E and A7M  , play Riff B between chord changes


| /   slide up
| \   slide down
Добавлено: 28.09.2015
Другие материалы по этой песне:
  • Аккорды и текст

Страница создана 28.09.2015
http://primanota.ru/built-to-spill/so-chords.htm
Привет, Гость.
Предлагаем пройти революционный курс по гитаре.
Подарок от PrimaNota.Ru, забирай!