PrimaNota.ru - самый крупный в мире бесплатный архив песенных текстов, аккордов, табулатур и нот


Built To Spill - Plan - текст песни, таба, видео

Регистрация Запомнить меня
Войти через:  Facebook Google Twitter Vk Yandex Mail.ru

Built To Spill - Plan - текст песни, таба, видео

Печатать
Просмотров: 110
Tabbed by:CMM
Email: colin_michael_muppet@hotmail.com

Tuning: Standard

(Intro)
e|---2---2-2-2-2-2-2-2-2-2-2-2-2--3---3-3-3-3-3-3-3-3-3-3-3-3---|
B|---3---3-3-3-3-3-3-3-3-3-3-3-3--3---3-3-3-3-3-3-3-3-3-3-3-3---|
G|---2---2-2-2-2-2-2-2-2-2-2-2-2--0---0-0-0-0-0-0-0-0-0-0-0-0---|
D|---0---0-0-0-0-0-0-0-0-0-0-0-0--0---0-0-0-0-0-0-0-0-0-0-0-0---|
A|---0---0-0-0-0-0-0-0-0-0-0-0-0--2---2-2-2-2-2-2-2-2-2-2-2-2---|
E|--------------------------------3---3-3-3-3-3-3-3-3-3-3-3-3---|

(Intro Guitar Two)
e|---2/5------------------------------------------------------------------|
B|------------------------------------------------------------------------|
G|------------------------------------------------------------------------|
D|------------------------------------------------------------------------|
A|------------------------------------------------------------------------|
E|------------------------------------------------------------------------|

(Verse)
e|-2----2----2------0--2--2--2--0--2--2--2--0--2--2--2--0--2--2--2--0--2--2|
B|-3----3----3------3--3--3--3--3--3--3--3--3--3--3--3--3--3--3--3--3--3--3|
G|-2----2----2-------------------------------------------------------------|
D|-0----0----0-------------------------------------------------------------|
A|-0----0----0-------------------------------------------------------------|
E|-------------------------------------------------------------------------|

e|--2--|
B|--3--|
G|-----|
D|-----|
A|-----|
E|-----|
NOTE: Played numberous times, listen to song for timing.

(Solo)
e|-------------------------------------------------------------------------|
B|-------------------------------------------------------------------------|
G|-14/16\14/16--14-14-14-x-11-11-11--11-11-11--x--7--7-x-x-----------------|
D|--x--x--x--x---x--x--x-x--x--x--x---x--x--x--x--x--x-x-x-9--9--9\7--7----|
A|-12/14\12/14--12-12-12-x--9--9--9---9--9--9--x--5--5-x-x-x--x--x-x--x----|
E|---------------------------------------------------------7--7--7\5--5----|

e|-------------------------------------------------------------------------|
B|-------------------------------------------------------------------------|
G|-14/16\14/16--14-14-14-x-11-11-11--11-11-11--x--14-14-14-x-x--7--7--7-7-7|
D|--x--x--x--x---x--x--x-x--x--x--x---x--x--x--x---x--x--x-x-x--x--x--x-x-x|
A|-12/14\12/14--12-12-12-x--9--9--9---9--9--9--x--12-12-12-x-x--5--5--5-5-5|
E|-------------------------------------------------------------------------|

e|------14--14-------14--15p14--------------14--14----------14--14------14-|
B|------------------------------15-----------------------------------------|
G|--14-----------14-----------------14---14-------------14----------14-----|
D|-------------------------------------------------------------------------|
A|-------------------------------------------------------------------------|
E|-------------------------------------------------------------------------|

e|--15p14-----------------14--14----|
B|---------15-----------------------|
G|-------------14-----14------------|
D|----------------------------------|
A|----------------------------------|
E|----------------------------------|

(Fill)
e|-x--x--x-x--|
B|-x--x--x-x--|
G|-x--x--x-x--|
D|-x--x--x-x--|
A|-x--x--x-x--|
E|-x--x--x-x--|
NOTE: Played after lyrics "But the remedy can--"

(Bridge pt.One)
e|-------------------------------------------------------------------------|
B|-------------------------------------------------------------------------|
G|-5--x-x--12--x-x--17--x-x--12-12-12-----------------------12-12-12-12-12\|
D|-x--x-x---x--x-x---x--x-x---x--x--x------------------------x--x--x--x--x-|
A|-3--x-x--10--x-x--15--x-x--10-10-10---2--0--2----2/7\2-2--10-10-10-10-10\|
E|-------------------------------------------------------------------------|

(Bridge pt.Two)
e|------------------------------------------------------------------------|
B|------------------------------------------------------------------------|
G|--10-10-10-7--7--x-x-10-10-10-7--7--x-x-10-10-10-7--7--x-x-7--7-7--7-7--|
D|---9--9--9-9--9--x-x--9--9--9-9--9--x-x--9--9--9-9--9--x-x-7--7-7--7-7--|
A|------------------------------------------------------------------------|
E|------------------------------------------------------------------------|

e|---------------------------------------------------------------------|
B|---------------------------------------------------------------------|
G|--7-7--7-7--7--/14-14-14-14--x--7-7--7-11-11-11--7--7-7-7-7-6-6-6-6--|
D|--x-x--x-x--x----x--x--x--x--x--x-x--x--x--x--x--x--x-x-x-x-x-x-x-x--|
A|--5-5--5-5--5--/12-12-12-12--x--5-5--5--9--9--9--5--5-5-5-5-4-4-4-4--|
E|---------------------------------------------------------------------|

(Bridge pt.Two Guitar Two)
e|--5+b--5+b------------5+b--5+b------------5+b--5+b-------------|
B|-------------5+b--5+b-----------5+b--5+b------------5+b--5+b---|
G|---------------------------------------------------------------|
D|---------------------------------------------------------------|
A|---------------------------------------------------------------|
E|---------------------------------------------------------------|

(Bridge pt.Two Guitar Two Outro)
e|-------------------------------------------------------------------------|
B|-------------------------------------------------------------------------|
G|--10-9-7-----10-9-7-------7-------10-9-7----10-9-7-------7---------------|
D|---------9----------9---9---9------------9---------9---9---9---7br--12br-|
A|-------------------------------------------------------------------------|
E|-------------------------------------------------------------------------|

e|----------------------|
B|----------------------|
G|--------11b12r11b12---|
D|--11br----------------|
A|----------------------|
E|----------------------|

(Pre Outro)
e|--2~----|
B|--3~----|
G|--2~----|
D|--0~----|
A|--0~----|
E|--------|

(Outro)
e|-------------------------------------------------------------------------|
B|-------------------------------------------------------------------------|
G|-------------------------------------------------------------------------|
D|-------------------------------------------------------------------------|
A|-------------------------------------------------------------------------|
E|--2/9/10-------2/10\----------2/10\----------2/10\----------2/10\--------|

e|-------------------------------------------------------------------------|
B|-------------------------------------------------------------------------|
G|-------------------------------------------------------------------------|
D|-------------------------------------------------------------------------|
A|-------------------------------------------------------------------------|
E|--2/10--\7---/12-12\-----2/10--\7--\5-----2/10--\7---/12-12\-----2/10--\7|

e|----------------------------------------------------------|
B|----------------------------------------------------------|
G|----------------------------------------------------------|
D|----------------------------------------------------------|
A|----------------------------------------------------------|
E|--\5---2/10--\7---/12-12\-----2/10--\7--\5----------2/10--|


| /  slide up
| \  slide down
| h  hammer-on
| p  pull-off
| ~  vibrato
| +  harmonic
| x  Mute note
| b  Bend to indicated pitch
| br Bend to indicated pitch and released to indicated pitch
===============================================================================
Добавлено: 30.06.2012
Другие материалы по этой песне:
  • Аккорды и текст

Страница создана 02.03.2012
http://primanota.ru/built-to-spill/plan-chords.htm
Привет, Гость.
Предлагаем пройти революционный курс по гитаре.
Подарок от PrimaNota.Ru, забирай!