PrimaNota.ru - самый крупный в мире бесплатный архив песенных текстов, аккордов, табулатур и нот


Built To Spill - On The Way - таба, видео

Регистрация Запомнить меня
Войти через:  Facebook Google Twitter Vk Yandex Mail.ru

Built To Spill - On The Way - таба, видео

Печатать
Просмотров: 46
Уроки эстрадного вокала в Санкт-Петербурге
Авторы: Built to Spill

----------------------------------------------------------
Built to Spill - On The Way
Tabbed by Miamasa
----------------------------------------------------------

Dm Am F C G    x2


Riff 1
   Dm        Am          F              C       G  
E|----------------------------------------------------|
B|----------------------------------------------------|
G|----------------------------------------------------|    x2
D|----------------------------------------------------|
A|-5---------3-----------0----------------------------|
E|----------------------------------------------------|



Dm            Am   F  C G
On the way to Mars
Dm          Am     F   C G
We can reminisce a lot
      (G)             Dm              Am   F   C G
Let's talk about the darkness and the stars
(G)            Dm              Am        F   C G
Talk about the people we might miss on earth



Riff 2(Alongside riff 1)
   Dm        Am          F              C       G  
E|-1---3--5-------------------------------------------|
B|-----------5-----------1----------------------------|
G|----------------------------------------------------|    x2
D|----------------------------------------------------|
A|----------------------------------------------------|
E|----------------------------------------------------|



Em         C
Untethered Moon
Em         C  x 3



Dm               Am     F  C G
Now is all that matters
        (G)            Dm                Am    F  C G
There's nothing in the past but that's alright
(G)             Dm               Am    F  C G 
We can see the stars in all directions
(G)            Dm             Am   F  C G
Now we see a tangled blur of white



Em         C     Em        C     
Maltesian riot, (Maltesian riot)   x4    (+ riot riot riot riot!)



Solo: Tons of slow bends, slides and whatnot. The kind of thing you'd ad lib.
Dm Am F C G x4



Dm                 Am        F   C G
Now I guess I'll finally see
    Dm                 Am         F   C G
The kind of calmness chaos brings
 (G)      Dm            Am             F   C G
I got so tired of going round and round
   (G)       Dm         Am           F   C G
Waiting for gravity to bring me down



Outro:

E|-----------------------------------|
B|-----------------------------------|
G|-----------------------------------|    x4
D|-----------------------------------|
A|--7---7---7---7---7---7---7---5-5--|
E|-----------------------------------|

E|-----------------------------------|
B|-----------------------------------|
G|-----------------------------------|    x2
D|-----------------------------------|
A|--9---9---9---9---9---9---9---7-7--|
E|-----------------------------------|

E|------------------------------------5-5-5-5--|
B|------------------------------------5-5-5-5--|
G|------------------------------------6-6-6-6--|    
D|------------------------------------7-7-7-7--|
A|--9---9---9---9---9---9---9---7-7---7-7-7-7--|
E|------------------------------------5-5-5-5--|

E|-----------------------------------|
B|-----------------------------------|
G|-----------------------------------|
D|-----------------------------------|
A|--9---9---9---9---9---9---9---7-7--|
E|-----------------------------------|

E|-----------------------------------|
B|-----------------------------------|
G|-----------------------------------|
D|------------------------------9b11-|
A|--9---9---9---9---9---9---9--------|
E|-----------------------------------|

E|------------------------------------5-5-5-5-4-4-4-4---|
B|------------------------------------5-5-5-5-4-4-4-4---|
G|------------------------------------6-6-6-6-5-5-5-5---|    
D|------------------------------------7-7-7-7-6-6-6-6---|
A|--9---9---9---9---9---9---9---7-7---7-7-7-7-6-6-6-6---|
E|------------------------------------5-5-5-5-4-4-4-4---|

E|----0-0------------4-4-------|
B|----0----0---------4----4----|
G|--1-1------1-----5-5------5--|    
D|--2-2------------6-6---------|
A|--2-2------------6-6---------|
E|--0-0------------4-4---------|

Repeat until end
Добавлено: 14.06.2016
Другие материалы по этой песне:
  • Аккорды и текст

Страница создана 14.06.2016
http://primanota.ru/built-to-spill/on-way-chords.htm
Привет, Гость.
Предлагаем пройти революционный курс по гитаре.
Подарок от PrimaNota.Ru, забирай!