PrimaNota.ru - самый крупный в мире бесплатный архив песенных текстов, аккордов, табулатур и нот


Built To Spill - Heart - таба, видео

Регистрация Запомнить меня
Войти через:  Facebook Google Twitter Vk Yandex Mail.ru

Built To Spill - Heart - таба, видео

Печатать
Просмотров: 132
-----------------------------------------------------------------------------
Heart(Things Never Shared)- Doug Martsch
-----------------------------------------------------------------------------
Tabbed by: Jeff McCall
Email: jeff.mccall.21@gmail.com

Tuning: Standard

Em            D          Em           C
Don't you get sick of it Stuck in the thick of it

Em         D                 C
Making new friends you don't need

Em       D           Em         C
Isn't it amazing how everyone's crazy about

Em       D          C 
violence they can't conceive

D           Em          C          G
Well I hung around like another pronoun

D            Em        C
Familiar but lacking a name

D           Am         Em
It was good enough for me

G     D            Am 
      Things never shared
D                 Am           Em
Things that don't mean much to me

G     D            Am
      Things never shared
D                 Am           Em
things that don't mean much to me

G       D     Am
    I'm on my guard
Am             Em  C
wait until you see sometime,

G       D     Am
  whats in my heart
D     Am        Em
good enough for me

Solo 1

Em – D – Em – C
Em – D – C

Em – D – Em – C
Em – D – C

D – Em – C – G
D – Em – C
D – Am - Em

Solo 1 (1:31) played with a slide
e|--------------------------------------------------------------------------|
B|--------------------------------------------------------------------------|
G|-----9----/11~-----9-----/12v--/12-/11-/9-/11-/9-/7-/9--------------------|
D|-7/9—--7/9-----7/9---7/9----------------------------------10--------------|
A|--------------------------------------------------------------------------|
E|--------------------------------------------------------------------------|

e|--------------------------------------------------------------------------|
B|--------------------------------------------------------------------------|
G|-----9-----11~--12-11---------9/12-/9—-7/11-/7-/5-------------------------|
D|-7/9---7/9------------9-9/10----------------------------------------------|
A|--------------------------------------------------------------------------|
E|--------------------------------------------------------------------------|

e|--------------------------------------------------------------------------|
B|-----7---/8-/7-/5-/7-/5-/7-/12------7---/8-/7-/5-/7\5/7\5/7\5-------------|
G|-5/7---7------------------------5/7---7-----------------------------------|
D|--------------------------------------------------------------------------|
A|--------------------------------------------------------------------------|
E|--------------------------------------------------------------------------|

e|--------------------------------------------------------------------------|
B|--------------------------------------------------------------------------|
G|-9\7~---------------------------------------------------------------------|
D|-------10\9~---7/9~-------------------------------------------------------|
A|--------------------------------------------------------------------------|
E|--------------------------------------------------------------------------|

(Solo 2 is played right after solo 1 during “things never shared…”)

Solo 2 (2:15) played without a slide
e|--------------------------------------------------------------------------|
B|-8-----------8-------------------------------8----------------------------|
G|---9p7-----7---9p7----7--9-7-9-7-9---9-7-9-----9p7----7-9-7-9-9~--7-9-----|
D|-------7h9---------7h9-------------9--------------7h9---------------------|
A|--------------------------------------------------------------------------|
E|--------------------------------------------------------------------------|

G     D            Am 
      Things never shared
D                 Am           Em
Things that don't mean much to me


G     D            Am
      Things never shared
D                 Am           Em
things that don't mean much to me

(2:39)

G       D     Am
    I'm on my guard
Am             Em  C
wait until you see sometime,

G       D     Am
  whats in my heart
D     Am        Em
good enough for me


| /  slide up
| \  slide down
| h  hammer-on
| p  pull-off
| ~  vibrato
| +  harmonic
| x  Mute note
=============================================================================

Добавлено: 09.05.2012
Другие материалы по этой песне:
  • Аккорды и текст

Страница создана 09.05.2012
http://primanota.ru/built-to-spill/heart-chords.htm
Привет, Гость.
Предлагаем пройти революционный курс по гитаре.
Подарок от PrimaNota.Ru, забирай!