PrimaNota.ru - самый крупный в мире бесплатный архив песенных текстов, аккордов, табулатур и нот


Built To Spill - Conventional Wisdom - текст песни, таба, видео

Регистрация Запомнить меня
Войти через:  Facebook Google Twitter Vk Yandex Mail.ru

Built To Spill - Conventional Wisdom - текст песни, таба, видео

Печатать
Просмотров: 203
Уроки эстрадного вокала в Санкт-Петербурге
Conventional Wisdom
Built to Spill
by: ian gstalder
intro
e ------------------------------------------------------------------|
b ------------------------------------------------------------------|
g ---0-0-------0-0-0-0-0-0-0--00000000------------------------------|
d --4-4-4-----9-9-9-9-9-9-9---44444444------------------------------|
a -5-----5-/10---------------\55555555------------------------------|
E ------------------------------------------------------------------|

chorus  (guitar 1)
e 10-10-10-10-12-14---10-------10----10-----10----------------------|
b 10-10-10-10-10-10---12-----12----12-------------------------------|
g 11-11-11-11-11-11---12---12----12----12-11--11--------------------|
d ------------------------------------------------------------------| * 2
a ------------------------------------------------------------------|
E ------------------------------------------------------------------|

e 10-10-10-10-12-14--15-14-12-14--12/10-10-12-10-14-12/10-10-12-10--|
b 10-10-10-10-10-10-------------------------------------------------|
g 11-11-11-11-11-11-------------------------------------------------|
d ------------------------------------------------------------------|
a ------------------------------------------------------------------|
E ------------------------------------------------------------------|

e 10-10-10-10-12-14---10-------10----10-----10----------------------|
b 10-10-10-10-10-10---12-----12----12-------------------------------|
g 11-11-11-11-11-11---12---12----12----12-11--11--------------------|
d ------------------------------------------------------------------|
a ------------------------------------------------------------------|
E ------------------------------------------------------------------|

guitar 2

     power D      to     power G
e|     5                    3
b|     7                    3
g|     7                    4
d|     7                    5
a|     5                    5
E|     x                    3

rest of song(random licks at the end) will be up shortly
Добавлено: 03.07.2012
Другие материалы по этой песне:

Страница создана 26.02.2012
http://primanota.ru/built-to-spill/conventional-wisdom-chords.htm
Привет, Гость.
Предлагаем пройти революционный курс по гитаре.
Подарок от PrimaNota.Ru, забирай!