PrimaNota.ru - самый крупный в мире бесплатный архив песенных текстов, аккордов, табулатур и нот


Building 429 - You Save Me - таба, видео

Регистрация Запомнить меня
Войти через:  Facebook Google Twitter Vk Yandex Mail.ru

Building 429 - You Save Me - таба, видео

Печатать
Просмотров: 91
-------------------------------------------------------------------------------
                          YOU SAVE ME - Building 429
-------------------------------------------------------------------------------
Tabbed by: Luis Perez
E-mail: giacomodevinci@yahoo.es

Tuning: Standard

Guitar 1 (intro/verse/ "riff 1"): Clean

e|------------------------------------------------------|
B|------------------------------------------------------|
G|------------------------------------------------------|
D|------2-----4-----2-----4-----2-----4-----2-----4-----| x2
A|---2-----2-----0-----0-----5-----5-----5-----5--------|
E|------------------------------------------------------|

Guitar 2(intro/end of verse 1/end of chorus/ "riff 2"): Clean w/Heavy Chorus/Flanger

e|-------------------------------------------------------|
B|---3p2-------------------------3p2---------------------|
G|--------2------2--------------------2------------------|
D|-----------2------4~-------------------2~--0-----------|
A|----------------------------------------------0~-------|
E|-------------------------------------------------------|

Guitar 3 (second, third verses/prechorus): Light overdrive/palm-muted

e|---------------------------|
B|---------------------------|
G|---------------------------|
D|---------------77777777----| x4
A|---9999--7777--55555555----|
E|---7777--5555--------------|

All Guitars (chorus): Heavy overdrive/distortion [you can play it in other ways these chords: G, D, A, Bm]

e|--------------------------------------------------------|
B|--------------------------------------------------------|
G|--------7777--------------------------7777--------------|
D|--5555--7777--7777ss9999--------5555--7777--77777777----| x3 (the last time with the riff 2)
A|--5555--5555--7777ss9999--------5555--5555--77777777----|
E|--3333--------5555ss7777--------3333--------55555555----|

then the riff 1 & riff 2 (the first half) only

then...

Verse 3: play the riff 1 (inbetween), and the palm-muted part

Chorus: the same as above



Bridge: I am not really sure, but I thin it's the same as the chorus. At the end enters a acoustic with the same
chords.

Chorus again

Outro: riff 1 w/variation


e|------------------------------------------------------|
B|------------------------------------------------------|
G|--------------------------------------2~~-------------|
D|------2-----4-----2-----4-------4-----4~~-------------| 
A|---2-----2-----0-----0-----0h2-----5--5~~-------------|
E|------------------------------------------------------|



************************************

| /   slide up
| \   slide down
| h   hammer-on
| p   pull-off
| ~   let-ring
************************************
Добавлено: 02.08.2015
Другие материалы по этой песне:
  • Аккорды и текст

Страница создана 02.08.2015
http://primanota.ru/building-429/you-save-me-chords.htm
Привет, Гость.
Предлагаем пройти революционный курс по гитаре.
Подарок от PrimaNota.Ru, забирай!