PrimaNota.ru - самый крупный в мире бесплатный архив песенных текстов, аккордов, табулатур и нот


Buffalo Tom - Velvet Roof - текст песни, таба, видео

Регистрация Запомнить меня
Войти через:  Facebook Google Twitter Vk Yandex Mail.ru

Buffalo Tom - Velvet Roof - текст песни, таба, видео

Печатать
Просмотров: 111
Авторы: Chris Colbourn, Bill Janovitz, Tom Maginnis

Couldn't find any tabs of this out there, probably has some mistakes but sounds ok to me 
anyway!! You just need to play around and have fun with it!

Capo on 3rd (all notes relative to capo)

Intro:

e------------------0-----|  x8
B----2-x--2-2--3-2-0-----|
G----2-x--2-2--2-2-0-----|
D----2-x--2-2--2-2-0-----|
A----0-x--0-0------------|
E------------------------|


Verse 1:

e-------------------0-------------------0---|
B-----2-x--2-2--3-2-0-----2-x--2-2--3-2-0---|
G-----2-x--2-2--2-2-0-----2-x--2-2--2-2-0---|
D-----2-x--2-2--2-2-0-----2-x--2-2--2-2-0---|
A-----0-x--0-0------------0-x--0-0----------|
E-------------------------------------------|

e----2-2-----------0-0---------------|
B----5-5--5--------3-3--3--(3)-3/5---|
G----4-4----4------2-2----2(2)-------|
D----2-2------2----0-0------0--------|
A----2-2------2----0-0------0--------|
E------------------------------------|

e-------------------0-------------------0----|  x2
B-----2-x--2-2--3-2-0-----2-x--2-2--3-2-0----|
G-----2-x--2-2--2-2-0-----2-x--2-2--2-2-0----|
D-----2-x--2-2--2-2-0-----2-x--2-2--2-2-0----|
A-----0-x--0-0------------0-x--0-0-----------|
E--------------------------------------------|

Here she comes across the street
But I'm already there downstairs to meet with her
She could make my life complete
But I'm already there to compete with her


e----2-2-----------0-0---------------|
B----5-5--5--------3-3--3--(3)-3/5---|
G----4-4----4------2-2----2(2)-------|
D----2-2------2----0-0------0--------|
A----2-2------2----0-0------0--------|
E------------------------------------|

e-------------------0-------------------0----|  x2
B-----2-x--2-2--3-2-0-----2-x--2-2--3-2-0----|
G-----2-x--2-2--2-2-0-----2-x--2-2--2-2-0----|
D-----2-x--2-2--2-2-0-----2-x--2-2--2-2-0----|
A-----0-x--0-0------------0-x--0-0-----------|
E--------------------------------------------|

Climb aboard my velvet roof
And smile showing me one golden tooth


Chorus 1:

e----2--2-2--2-2---0--0-0--0-0--------------------------------|
B----5--5-5--5-5---3--3-3--3-3---2--2-2--2-2----5--5-5--5-5---|
G----4--4-4--4-4---2--2-2--2-2---2--2-2--2-2----5--5-5--5-7---|
D----2--2-2--2-2---0--0-0--0-0---2--2-2--2-2----5--5-5--5-7---|
A----2--2-2--2-2---0--0-0--0-0---0--0-0--0-0----3--3-3--3-5---|
E-------------------------------------------------------------|

e-------------------0-------------------0----|
B-----2-x--2-2--3-2-0-----2-x--2-2--3-2-0----|
G-----2-x--2-2--2-2-0-----2-x--2-2--2-2-0----|
D-----2-x--2-2--2-2-0-----2-x--2-2--2-2-0----|
A-----0-x--0-0------------0-x--0-0-----------|
E--------------------------------------------|

e-------------------0-------------------0----|
B-----2-x--2-2--3-2-0-----2-x--2-2--3-2-0----|
G-----2-x--2-2--2-2-0-----2-x--2-2--2-2-0----|
D-----2-x--2-2--2-2-0-----2-x--2-2--2-2-0----|
A-----0-x--0-0------------0-x--0-0-----------|
E--------------------------------------------|

A simple gesture yes or no
Would have been enough to let me know


Verse 2 (as Verse 1 pattern)

Scraggly hair and messed up shoes
I'm looking all around for you
Find you in the corner bar
But you can't find the keys to your car
She's as sharp as a razor blade
But she could cut my wrists open just the same


Chorus 2:

e----2--2-2--2-2---0--0-0--0-0-----------------|
B----5--5-5--5-5---3--3-3--3-3---2--2-2--2-2---|
G----4--4-4--4-4---2--2-2--2-2---2--2-2--2-2---|
D----2--2-2--2-2---0--0-0--0-0---2--2-2--2-2---|
A----2--2-2--2-2---0--0-0--0-0---0--0-0--0-0---|
E----------------------------------------------|

e----------------------------------------------|
B----5--5-5--5-5---2-x-2-2--x-2-2--x-2-2-------|
G----5--5-5--5-7---2-x-2-2--x-2-2--x-2-2-------|
D----5--5-5--5-7---2-x-2-2--x-2-2--x-2-2-------|
A----3--3-3--3-5---0-x-0-0--x-0-0--x-0-0-------|
E----------------------------------------------|

Softer than my velvet floor
Gatherin' up the veil and going home


Harmonica Solo 1 with bridge pattern underneath

e----2-2-----------0-0---------------| x2
B----5-5--5--------3-3--3--(3)-3/5---|
G----4-4----4------2-2----2(2)-------|
D----2-2------2----0-0------0--------|
A----2-2------2----0-0------0--------|
E------------------------------------|

e---------------------------------|
B-----2-x-2-2--x-2-2--x-2-2-------|
G-----2-x-2-2--x-2-2--x-2-2-------|
D-----2-x-2-2--x-2-2--x-2-2-------|
A-----0-x-0-0--x-0-0--x-0-0-------|
E---------------------------------|


e----2-2-----------0-0---------------| x2
B----5-5--5--------3-3--3--(3)-3/5---|
G----4-4----4------2-2----2(2)-------|
D----2-2------2----0-0------0--------|
A----2-2------2----0-0------0--------|
E------------------------------------|


Verse 3 as Verse 1 pattern:

Scraggly hair and messed up shoes
I'm looking all around for you
Find you in the corner bar
But you can't find the keys to your car
She's as sharp as a razor blade
But she could cut my wrists open just the same


Chorus 3 as Chorus 2 pattern:

Softer than my velvet floor
Gatherin' up the veil and going home


Harmonica solo 2 etc...

e----2-2-----------0-0---------------| x2
B----5-5--5--------3-3--3--(3)-3/5---|
G----4-4----4------2-2----2(2)-------|
D----2-2------2----0-0------0--------|
A----2-2------2----0-0------0--------|
E------------------------------------|

e---------------------------------|
B-----2-x-2-2--x-2-2--x-2-2-------|
G-----2-x-2-2--x-2-2--x-2-2-------|
D-----2-x-2-2--x-2-2--x-2-2-------|
A-----0-x-0-0--x-0-0--x-0-0-------|
E---------------------------------|

e----2-2-----------0-0---------------| x2
B----5-5--5--------3-3--3--(3)-3/5---|
G----4-4----4------2-2----2(2)-------|
D----2-2------2----0-0------0--------|
A----2-2------2----0-0------0--------|
E------------------------------------|

Hey man what's the matter with
Hey man what's the matter with you..... etc

End on:

e--------------------------------|
B----2-x-2-2--x-2-2--x-2-2-------|
G----2-x-2-2--x-2-2--x-2-2-------|
D----2-x-2-2--x-2-2--x-2-2-------|
A----0-x-0-0--x-0-0--x-0-0-------|
E--------------------------------|
Добавлено: 19.08.2013
Другие материалы по этой песне:
  • Аккорды и текст

Страница создана 18.07.2012
http://primanota.ru/buffalo-tom/velvet-roof-chords.htm
Привет, Гость.
Предлагаем пройти революционный курс по гитаре.
Подарок от PrimaNota.Ru, забирай!