PrimaNota.ru - самый крупный в мире бесплатный архив песенных текстов, аккордов, табулатур и нот


Buffalo Springfield - Uno Mundo - аккорды и текст, видео

Регистрация Запомнить меня
Войти через:  Facebook Google Twitter Vk Yandex Mail.ru

Buffalo Springfield - Uno Mundo - аккорды и текст, видео

Печатать
Просмотров: 94
Авторы музыки: Stephen Stills
Авторы текста: Stephen Stills
Uno Mundo
Buffalo Springfield
The only solo I could figure out was the trumpet one, sorry.

                                    "Uno Mundo"
                                    (S. Stills)
                                Buffalo Springfield
                              Last Time Around,  1968

Intro:

        [5-bar percussion fill]

        fuzz guitar solo:

        A D A       G D   A D A       G D   A D A       G D   A D A
        / / / /  / / / /  / / / /  / / / /  / / / /  / / / /  / / / /  / / / /

Verses 1, 2, 3, & 4:

        D7                                                               G
        / / / /  / / / /  / / / /  / / / /  / / / /  / / / /  / / / /  / / / / 

[Verse 2]

Fuzz guitar solo:

        A D A       G D   A D A       G D   A D A       G D   A D A
        / / / /  / / / /  / / / /  / / / /  / / / /  / / / /  / / / /  / / / / 

        D7                                                               G
        / / / /  / / / /  / / / /  / / / /  / / / /  / / / /  / / / /  / / / / 

[Verse 3]

Trumpet solo [arr. for guitar]:

        A   D   A                         A   D   A                        
        v   v   v   v    v   v   v   v    v   v   v   v    v   v   v   v   
        ----------------|----------------|----------------|----------------|
        2-0-------------|----------------|2-0-------------|----------------|
        ------2-------0-|--0-2-----------|------2-------0-|--0-2-----------|
        ----------2-----|--------2-------|----------2-----|----------------|
        ----------------|----------------|----------------|----------------|
        ----------------|----------------|----------------|----------------|

        A   D   A                         A   D   A                        
        v   v   v   v    v   v   v   v    v   v   v   v    v   v   v   v   
        ----------------|----------------|----------------|----------------|
        2-0-------------|----------------|2-0-------5---3-|--2---3---3-5---|
        ------2-------0-|--0-2-----------|------2---6---4-|--2---4---4-6---|
        ----------2-----|--------2-------|----------------|----------------|
        ----------------|----------------|----------------|----------------|
        ----------------|----------------|----------------|----------------|

[Verse 4]

Coda:

        [fade over verse chords]

Questions? Comments? E-mail diamhed@aol.com
     
Добавлено: 29.10.2013
Другие материалы по этой песне:
  • Аккорды и текст

Страница создана 29.10.2013
http://primanota.ru/buffalo-springfield/uno-mundo-chords.htm
Привет, Гость.
Предлагаем пройти революционный курс по гитаре.
Подарок от PrimaNota.Ru, забирай!