PrimaNota.ru - самый крупный в мире бесплатный архив песенных текстов, аккордов, табулатур и нот


Budgie - Zoom club - таба, видео

Регистрация Запомнить меня
Войти через:  Facebook Google Twitter Vk Yandex Mail.ru

Budgie - Zoom club - таба, видео

Печатать
Просмотров: 168


Song:   Zoom club
Artist: Budgie
Album:  In for the kill
Tabber: Svennen

Im sure this is not the right way to play it but its close.


Riff 1
E|--------------------------------|
A|--------------------------------|
D|0-2-3----0-2-3-0-3-5------------|
G|0-2-3----0-2-3-0-3-5------------|
B|--------------------------------|
E|--------------------------------|


Riff 2
E|--------------------------------|
A|--------------------------------|
D|0-2-3-0-5-0-3-2-----------------|
G|0-2-3-0-5-0-3-2-----------------|
B|--------------------------------|
E|--------------------------------|


Riff 3
E|--------5--5--3--------3--5--3--|
A|--------3--3--3--------3--3--3--|
D|0-2-3-0-3--3--3--2-3-0-3--3--3--|
G|0-2-3-0-3--3--3--2-3-0-5--3--5--|
B|--------------------------------|
E|--------------------------------|


Riff 4
E|--------------------------------|
A|--------------------------------|
D|--------------------------------|
G|9----8----7----6----5-4444444444|
B|9----8----7----6----5-4444444444|
E|7----6----5----4----3-2222222222|


Riff 5
E|3--5--------3-------------------|
A|3--3--------3-------------------|
D|3--3--------3-------------------|
G|5--3--------5-------------------|
B|--------------------------------|
E|--------------------------------|





Riff 6
E|-3-5-5-3-5-3-3-5-3-3------------|
A|-3-3-3-3-3-3-3-3-3-3------------|
D|-3-3-3-3-3-3-3-3-3-3------------|
G|-3-3-3-3-3-3-3-3-3-5------------|
B|--------------------------------|
E|--------------------------------|


Riff 7
E|--------------------------------|
A|--------------------------------|
D|0-2-3-0-5-0-3-2-0-2-3-0-3-5-----|
G|0-2-3-0-5-0-3-2-0-2-3-0-3-5-----|
B|--------------------------------|
E|--------------------------------|


Riff 8
E|--------------------------------|
A|--------------------------------|
D|--------------------------------|
G|----------------2---------------|
B|------3-------5-2---------------|
E|0-3-5---2-5-7---0---------------|


Riff 9
E|--------------------------------|
A|--------------------------------|
D|0-2-3----0-2-3-0-3-5------------|
G|0-2-3----0-2-3-0-3-5------------|
B|--------------------------------|
E|--------------------------------|

Song:   Zoom club


Riff 1
E|-------------------------------------|
A|-------------------------------------|
D|0-2-3----0-2-3-0-3-5-----------------|
G|0-2-3----0-2-3-0-3-5-----------------|
B|-------------------------------------|
E|-------------------------------------|


Riff 2
E|-------------------------------------|
A|-------------------------------------|
D|0-2-3-0-5-0-3-2----------------------|
G|0-2-3-0-5-0-3-2----------------------|
B|-------------------------------------|
E|-------------------------------------|


Riff 3
E|--------5--5--3--------3--5--3-------|
A|--------3--3--3--------3--3--3-------|
D|0-2-3-0-3--3--3--2-3-0-3--3--3-------|
G|0-2-3-0-3--3--3--2-3-0-5--3--5-------|
B|-------------------------------------|
E|-------------------------------------|


Riff 4
E|-------------------------------------|
A|-------------------------------------|
D|-------------------------------------|
G|9----8----7----6----5-444444444444444|
B|9----8----7----6----5-444444444444444|
E|7----6----5----4----3-222222222222222|


Riff 5
E|3--5--------3------------------------|
A|3--3--------3------------------------|
D|3--3--------3------------------------|
G|5--3--------5------------------------|
B|-------------------------------------|
E|-------------------------------------|


Riff 6
E|-------------------------------------|
A|-------------------------------------|
D|0-2-3----0-2-3-0-3-5-----------------|
G|0-2-3----0-2-3-0-3-5-----------------|
B|-------------------------------------|
E|-------------------------------------|


Riff 7
E|-3-5-5-3-5-3-3-5-3-3-----------------|
A|-3-3-3-3-3-3-3-3-3-3-----------------|
D|-3-3-3-3-3-3-3-3-3-3-----------------|
G|-3-3-3-3-3-3-3-3-3-5-----------------|
B|-------------------------------------|
E|-------------------------------------|


Riff 8
E|-------------------------------------|
A|-------------------------------------|
D|0-2-3-0-5-0-3-2-0-2-3-0-3-5----------|
G|0-2-3-0-5-0-3-2-0-2-3-0-3-5----------|
B|-------------------------------------|
E|-------------------------------------|


Riff 9
E|-------------------------------------|
A|-------------------------------------|
D|-------------------------------------|
G|----------------2--------------------|
B|------3-------5-2--------------------|
E|0-3-5---2-5-7---0--------------------|


Riff 10
E|-------------------------------------|
A|-------------------------------------|
D|-------------------------------------|
G|6------4------4------46-6-4----------|
B|6----46-----46-----46------6---------|
E|4------------------------------------|


Solo
E|---------------------------------------|
A|---------------------------------------|
D|7(9)-7-5--7-7-5------------------------|
G|----------------7----------------------|
B|---------------------------------------|
E|---------------------------------------|


Structure:

Intro:
Riff 1 x2
Riff 2 x8
Riff 1 x2
Riff 3 x2
Riff 1 x2
Riff 3 x2
Riff 4 x1

Verse:

Riff 6 x4
Riff 7 x2
Riff 8 x2
Riff 2 x8

Chorus:

Riff 9 x1
Riff 2 x1  x4

Verse:

Break:

Riff 5 x4
Riff 7 x2
riff 10 x10

Solo:



Break:

Riff 8 x2
Riff 5 x4
Riff 7 x2

Verse:

Chorus:

Verse:

Outro:



Verse 1:
COME ON EVERYONE OF YOU G.I'S
YOU ARE THE ONES WHO CAN CARE
SPEED ON YOU WONDERFUL DROPOUTS
WE'LL BREAK THE WALLS OF THIS ROOM IN

Verse 2:
COME ON EVERYONE OF YOU PEOPLE
YOU AIN'T GOT MUD IN YOUR EYES
TELL EVERYBODY WITH HUNGER
EAT UP THE MUSIC TONIGHT

Verse 3:
COME ON YOU'LL ONLY GET HARDER
I WANNA GET IT TO YOU
YOU ARE MY LIFE
YOU TURN AROUND IN YOUR ZOOT SUIT

Verse 4:
COME ON EVERYONE OF YOU PREACHERS
YOU DO THE BEST THAT YOU CAN
MOVE ON EVERY ONE OF YOU TEACHERS
YOU DO THE BEST THAT YOU CAN

Chorus:
ZOOM ALONG, SUPERSTAR
ALL OVER THE LAND
MOVE ON MUSIC MAN



Добавлено: 25.09.2013
Вам также может быть интересно:
Другие материалы по этой песне:
  • Аккорды и текст

Страница создана 25.09.2013
http://primanota.ru/budgie/zoom-club-chords.htm
Привет, Гость.
Предлагаем пройти революционный курс по гитаре.
Подарок от PrimaNota.Ru, забирай!