PrimaNota.ru - самый крупный в мире бесплатный архив песенных текстов, аккордов, табулатур и нот


Buddy Holly - Rock Me My Baby - текст песни, таба, бас-таба, видео

Регистрация Запомнить меня
Войти через:  Facebook Google Twitter Vk Yandex Mail.ru

Buddy Holly - Rock Me My Baby - текст песни, таба, бас-таба, видео

Печатать
Просмотров: 217
ROCK ME MY BABY

As recorded by Buddy Holly
(From the 1957 Album THE "CHIRPING" CRICKETS)

Words and Music by Susan Heather & Shorty Long

Transcribed by Slowhand


Gtr I (E A D G B E) - 'Buddy Holly - Electric Guitar'
Gtr II (E A D G B E) - 'Niki Sullivan - Electric Guitar'


   Intro & Interlude
    Q=206(8=s8)
    E
   4/4
    Gtr I
    Q  E E E Q  E   Q  E E E Q  E   Q  E E E Q  E   Q  E E E Q  E
||----------------|---------------|---------------|---------------||
||o---------------|---------------|---------------|---------------||
||----------------|---------------|---------------|---------------||
||-----2-----0--2-|----2-----0--2-|----2-----0--2-|----2-----0--2-||
||o--------2------|--------2------|--------2------|--------2------||
||--0----0--------|-0----0--------|-0----0--------|-0----0--------||


 1st & 2nd Verses
  E
  Q  E E E Q  E   Q  E E E Q  E   Q  E E E Q  E   Q  E E E Q  E
|---------------|---------------|---------------|----------------|
|---------------|---------------|---------------|----------------|
|---------------|---------------|---------------|----------------|
|----2-----0--2-|----2-----0--2-|----2-----0--2-|----2-----0--2--|
|--------2------|--------2------|--------2------|--------2-------|
|-0----0--------|-0----0--------|-0----0--------|-0----0---------|


                                  B7
  Q  E E E Q  E   Q  E E E Q  E   E E Q  H      W
|---------------|---------------|-2-----------|------||
|---------------|---------------|-0-----------|------||
|---------------|---------------|-2-----------|------||
|----2-----0--2-|----2-----0--2-|-1-----------|------||
|--------2------|--------2------|-2-----------|------||
|-0----0--------|-0----0--------|-------------|------||


 Chorus
  A                  E                  A                  E
  Q  E E +E  E E E   Q  E E +E  E E E   Q  E E +E  E E E   Q  E E +E  E E E
|-0--0-0-(0)-0-0-0-|-0--0-0-(0)-0-0-0-|-0--0-0-(0)-0-0-0-|-0--0-0-(0)-0-0-0--|
|-2--2-2-(2)-2-2-2-|-0--0-0-(0)-0-0-0-|-2--2-2-(2)-2-2-2-|-0--0-0-(0)-0-0-0--|
|-2--2-2-(2)-2-2-2-|-1--1-1-(1)-1-1-1-|-2--2-2-(2)-2-2-2-|-1--1-1-(1)-1-1-1--|
|-2--2-2-(2)-2-2-2-|-2--2-2-(2)-2-2-2-|-2--2-2-(2)-2-2-2-|-2--2-2-(2)-2-2-2--|
|-0--0-0-(0)-0-0-0-|-2--2-2-(2)-2-2-2-|-0--0-0-(0)-0-0-0-|-2--2-2-(2)-2-2-2--|
|------------------|-0--0-0-(0)-0-0-0-|------------------|-0--0-0-(0)-0-0-0--|


                                       1.
  A                                     B7
  Q  E E +E  E E E   Q  E E +E  E E E   E E Q  H      H    E E E E
|-0--0-0-(0)-0-0-0-|-0--0-0-(0)-0-0-0-|-2-----------|--------0-------||
|-2--2-2-(2)-2-2-2-|-2--2-2-(2)-2-2-2-|-0-----------|--------0-2-0--o||
|-2--2-2-(2)-2-2-2-|-2--2-2-(2)-2-2-2-|-2-----------|----------------||
|-2--2-2-(2)-2-2-2-|-2--2-2-(2)-2-2-2-|-1-----------|----------------||
|-0--0-0-(0)-0-0-0-|-0--0-0-(0)-0-0-0-|-2-----------|---------------o||
|------------------|------------------|-------------|----------------||


                               Guitar Solo
  2.
  B7                            N.C.
  E E Q  H      H    E E E E    Q  E E +E  E Q    E E E E +E  E Q
|-2-----------|--------0-----||-0--0-5-(5)-5----|-5s7---------0-----|
|-0-----------|--------0-2-0-||-0----7-(7)---7--|-7s9-9-9-(9)---0---|
|-2-----------|--------------||-----------------|-------------------|
|-1-----------|--------------||-----------------|-------------------|
|-2-----------|--------------||-----------------|-------------------|
|-------------|--------------||-----------------|-------------------|


  E E E E +E  E Q    E E E E E E Q    E E E E +E  E Q    E E E E +E  E Q
|-----0-5-(5)-5----|-------7---0----|-----0-5-(5)-5----|-------------0-----|
|-4s5---7-(7)---7--|-7s9-9-------0--|-4s5-----------7--|-7s9-9-9-(9)---0---|
|------------------|----------------|------------------|-------------------|
|------------------|----------------|------------------|-------------------|
|------------------|----------------|------------------|-------------------|
|------------------|----------------|------------------|-------------------|


                 E7
   E E Q  H       E  E  E  E  E  E  E E
|-12-----------|-10-10-10-10-10-10-10-0-|
|-12-----------|-10-10-10-10-10-10-10---|
|--------------|--9--9--9--9--9--9--9---|
|--------------|------------------------|
|--------------|------------------------|
|--------------|------------------------|
|
| Gtr II
|  W              E  E  E  E  E  E  E E
|--------------|--0--0--0--0--0--0--0-0-|
|--------------|--3--3--3--3--3--3--3-3-|
|--------------|--1--1--1--1--1--1--1-1-|
|--------------|--2--2--2--2--2--2--2-2-|
|--------------|--2--2--2--2--2--2--2-2-|
|--------------|--0--0--0--0--0--0--0-0-|


  A                    E
  Q  E  E  E   E Q      E  E  E  E  +E   E  Q
|----9--------12-----|----------12-(12)----------|
|------10------------|-12---------------12-------|
|-9--------9-----9---|----13---------------13----|
|--------------------|-------14------------------|
|--------------------|---------------------------|
|--------------------|---------------------------|
|
| Q  E  E +E   E E E    Q     E  E  +E   E  E E
|-0--0--0-(0)--0-0-0-|--0-----0--0--(0)--0--0-0--|
|-2--2--2-(2)--2-2-2-|--0-----0--0--(0)--0--0-0--|
|-2--2--2-(2)--2-2-2-|--1-----1--1--(1)--1--1-1--|
|-2--2--2-(2)--2-2-2-|--2-----2--2--(2)--2--2-2--|
|-0--0--0-(0)--0-0-0-|--2-----2--2--(2)--2--2-2--|
|--------------------|--0-----0--0--(0)--0--0-0--|


  A                       E
  E  E E  E  +E  E  E E    W
|-9------12-(12)-9----0-|-12----------------|
|---10-------------10---|--9----------------|
|------9----------------|--9----------------|
|-----------------------|-------------------|
|-----------------------|-------------------|
|-----------------------|-------------------|
|
| Q    E  E  +E  E  E E    Q  E E +E  E E E
|-0----0--0--(0)-0--0-0-|--0--0-0-(0)-0-0-0-|
|-2----2--2--(2)-2--2-2-|--0--0-0-(0)-0-0-0-|
|-2----2--2--(2)-2--2-2-|--1--1-1-(1)-1-1-1-|
|-2----2--2--(2)-2--2-2-|--2--2-2-(2)-2-2-2-|
|-0----0--0--(0)-0--0-0-|--2--2-2-(2)-2-2-2-|
|-----------------------|--0--0-0-(0)-0-0-0-|


  A                      E
  E  E E  E  +E  E Q     E E E E +E  E E E
|-9------12-(12)-9-----|-7-----7-(7)-7------|
|---10-----------------|---9-------------0--|
|------9-----------9---|-----9---------9----|
|----------------------|--------------------|
|----------------------|--------------------|
|----------------------|--------------------|
|
| Q    E  E  +E  E E E   Q   E E +E  E E E
|-0----0--0--(0)-0-0-0-|-0---0-0-(0)-0-0-0--|
|-2----2--2--(2)-2-2-2-|-0---0-0-(0)-0-0-0--|
|-2----2--2--(2)-2-2-2-|-1---1-1-(1)-1-1-1--|
|-2----2--2--(2)-2-2-2-|-2---2-2-(2)-2-2-2--|
|-0----0--0--(0)-0-0-0-|-2---2-2-(2)-2-2-2--|
|----------------------|-0---0-0-(0)-0-0-0--|


                                         Interlude
  B                  E                    E
  Q  E E  E  E Q     Q  E E  E  E E E     Q  E E E Q  E   Q  E E E Q  E
|----0-------------|------------------||----------------|-----------------||
|------0-----2-----|----0-------------||o---------------|----------------o||
|---------1--------|----1-------------||----------------|-----------------||
|--------------4---|------------0h2-2-||-----2-----0--2-|----2-----0--2---||
|-2----------------|---------2--------||o--------2------|--------2-------o||
|------------------|-0----0-----------||--0----0--------|-0----0----------||
|
| Q  E E +E  E E E   Q  E E +E  E E E     W               W
|-2--2-2-(2)-2-2-2-|-0--0-0-(0)-0-0-0-||----------------|-----------------||
|-4--4-4-(4)-4-4-4-|-0--0-0-(0)-0-0-0-||o---------------|----------------o||
|-4--4-4-(4)-4-4-4-|-1--1-1-(1)-1-1-1-||----------------|-----------------||
|-4--4-4-(4)-4-4-4-|-2--2-2-(2)-2-2-2-||----------------|-----------------||
|-2--2-2-(2)-2-2-2-|-2--2-2-(2)-2-2-2-||o---------------|----------------o||
|------------------|-0--0-0-(0)-0-0-0-||----------------|-----------------||


   3rd Verse
    E                                 B7
    Q  E E E Q  E   Q  E E E Q  E  3x E E Q  H      W
||----------------|----------------||-2-----------|------||
||o---------------|---------------o||-0-----------|------||
||----------------|----------------||-2-----------|------||
||-----2-----0--2-|----2-----0--2--||-1-----------|------||
||o--------2------|--------2------o||-2-----------|------||
||--0----0--------|-0----0---------||-------------|------||


 Chorus
  A                  E                  A                  E
  Q  E E +E  E E E   Q  E E +E  E E E   Q  E E +E  E E E   Q  E E +E  E E E
|-0--0-0-(0)-0-0-0-|-0--0-0-(0)-0-0-0-|-0--0-0-(0)-0-0-0-|-0--0-0-(0)-0-0-0--|
|-2--2-2-(2)-2-2-2-|-0--0-0-(0)-0-0-0-|-2--2-2-(2)-2-2-2-|-0--0-0-(0)-0-0-0--|
|-2--2-2-(2)-2-2-2-|-1--1-1-(1)-1-1-1-|-2--2-2-(2)-2-2-2-|-1--1-1-(1)-1-1-1--|
|-2--2-2-(2)-2-2-2-|-2--2-2-(2)-2-2-2-|-2--2-2-(2)-2-2-2-|-2--2-2-(2)-2-2-2--|
|-0--0-0-(0)-0-0-0-|-2--2-2-(2)-2-2-2-|-0--0-0-(0)-0-0-0-|-2--2-2-(2)-2-2-2--|
|------------------|-0--0-0-(0)-0-0-0-|------------------|-0--0-0-(0)-0-0-0--|


  A                                     B7
  Q  E E +E  E E E   Q  E E +E  E E E   E E Q  H      H    E E E E
|-0--0-0-(0)-0-0-0-|-0--0-0-(0)-0-0-0-|-2-----------|--------0------||
|-2--2-2-(2)-2-2-2-|-2--2-2-(2)-2-2-2-|-0-----------|--------0-2-0--||
|-2--2-2-(2)-2-2-2-|-2--2-2-(2)-2-2-2-|-2-----------|---------------||
|-2--2-2-(2)-2-2-2-|-2--2-2-(2)-2-2-2-|-1-----------|---------------||
|-0--0-0-(0)-0-0-0-|-0--0-0-(0)-0-0-0-|-2-----------|---------------||
|------------------|------------------|-------------|---------------||


 Interlude
  E
  Q  E E E Q  E   Q  E E E Q  E   Q  E E E Q  E   E Q  E E E E E
|---------------|---------------|---------------|---0--0---0---0--||
|---------------|---------------|---------------|---3--3---0---0--||
|---------------|---------------|---------------|------------1----||
|----2-----0--2-|----2-----0--2-|----2-----0--2-|--------4--------||
|--------2------|--------2------|--------2------|-----------------||
|-0----0--------|-0----0--------|-0----0--------|-0---------------||


 Chorus
  A                  E                  A                  E
  Q  E E +E  E E E   Q  E E +E  E E E   Q  E E +E  E E E   Q  E E +E  E E E
|-0--0-0-(0)-0-0-0-|-0--0-0-(0)-0-0-0-|-0--0-0-(0)-0-0-0-|-0--0-0-(0)-0-0-0--|
|-2--2-2-(2)-2-2-2-|-0--0-0-(0)-0-0-0-|-2--2-2-(2)-2-2-2-|-0--0-0-(0)-0-0-0--|
|-2--2-2-(2)-2-2-2-|-1--1-1-(1)-1-1-1-|-2--2-2-(2)-2-2-2-|-1--1-1-(1)-1-1-1--|
|-2--2-2-(2)-2-2-2-|-2--2-2-(2)-2-2-2-|-2--2-2-(2)-2-2-2-|-2--2-2-(2)-2-2-2--|
|-0--0-0-(0)-0-0-0-|-2--2-2-(2)-2-2-2-|-0--0-0-(0)-0-0-0-|-2--2-2-(2)-2-2-2--|
|------------------|-0--0-0-(0)-0-0-0-|------------------|-0--0-0-(0)-0-0-0--|


  A                                     B7
  Q  E E +E  E E E   Q  E E +E  E E E   E E Q  H
|-0--0-0-(0)-0-0-0-|-0--0-0-(0)-0-0-0-|-2-----------||
|-2--2-2-(2)-2-2-2-|-2--2-2-(2)-2-2-2-|-0-----------||
|-2--2-2-(2)-2-2-2-|-2--2-2-(2)-2-2-2-|-2-----------||
|-2--2-2-(2)-2-2-2-|-2--2-2-(2)-2-2-2-|-1-----------||
|-0--0-0-(0)-0-0-0-|-0--0-0-(0)-0-0-0-|-2-----------||
|------------------|------------------|-------------||


                  Outro
  N.C.             E
                                     PM
  H    E E E E     Q  E E E Q  E  3x E E Q  H
|--------0-----||-----------------||-------------*|
|--------0-2-0-||o---------------o||-0-----------*|
|--------1-2-1-||-----------------||-1-----------*|
|--------------||-----2-----0--2--||-2-----------*|
|--------------||o--------2------o||-2-----------*|
|--------------||--0----0---------||-0-----------*|


Duration Legend
---------------
W - whole; H - half; Q - quarter; E - 8th; S - 16th; T - 32nd; X - 64th; a - acciaccatura
+ - note tied to previous; . - note dotted; .. - note double dotted
Uncapitalized letters represent notes that are staccato (1/2 duration)
Irregular groupings are notated above the duration line
Duration letters will always appear directly above the note/fret number it represents the
duration for.  Duration letters with no fret number below them represent rests.  Multi-
bar rests are notated in the form Wxn, where n is the number of bars to rest for.  Low
melody durations appear below the staff

Tablature Legend
----------------
 h   - hammer-on
 p   - pull-off
 b   - bend
 pb  - pre-bend
 r   - bend release (if no number after the r, then release immediately)
 /\  - slide into or out of (from/to "nowhere")
 s   - legato slide
 S   - shift slide
  - natural harmonic
[n]  - artificial harmonic
n(n) - tapped harmonic
 ~   - vibrato
 tr  - trill
 T   - tap
 TP  - trem. picking
 PM  - palm muting
\n/  - tremolo bar dip; n = amount to dip
 \n  - tremolo bar down
 n/  - tremolo bar up
/n\  - tremolo bar inverted dip
 =   - hold bend; also acts as connecting device for hammers/pulls
 <>  - volume swell (louder/softer)
 x   - on rhythm slash represents muted slash
 o   - on rhythm slash represents single note slash

Misc Legend
-----------
 |  - bar
||  - double bar
||o - repeat start
o|| - repeat end
*|  - double bar (ending)
 :  - bar (freetime)
 $  - Segno
 &  - Coda
Tempo markers -  = BPM(8/16=s8/s16), where s8 = swing 8ths, s16 = swing 16ths
Добавлено: 10.07.2015
Другие материалы по этой песне:

Страница создана 22.03.2012
http://primanota.ru/buddy-holly/rock-me-my-baby-chords.htm
Привет, Гость.
Предлагаем пройти революционный курс по гитаре.
Подарок от PrimaNota.Ru, забирай!