PrimaNota.ru - самый крупный в мире бесплатный архив песенных текстов, аккордов, табулатур и нот


Buddy Holly - Crying Wating Hoping - таба, видео

Регистрация Запомнить меня
Войти через:  Facebook Google Twitter Vk Yandex Mail.ru

Buddy Holly - Crying Wating Hoping - таба, видео

Печатать
Просмотров: 83
INTRO:
eb|--6------6------6------1------6------6------6------1-------|
Bb|--6------8------6------1------6------8------6------1-------|
Gb|--7--x3--8--x3--7--x3--2--x3--7--x3--8--x3--7--x3--2-------|
Db|--8------8------8------3------8------8------8------3-------|
Ab|--8------6------8------3------8------6------8------3-------|
Eb|--6------6------6------1------6------6------6------1-------|
     Ebm    E      Ebm    F      Ebm    E      Ebm    F

Then the chords changes into:
eb|--6------1------6------6------6------1------6------1-------|
Bb|--6------1------6------8------6------1------6------1-------|
Gb|--7--x6--2--x6--7--x6--8--x6--7--x6--2--x6--7--x6--2--x6---|
Db|--8------3------8------8------8------3------8------3-------|
Ab|--8------3------8------6------8------3------8------3-------|
Eb|--6------1------6------6------6------1------6------1-------|x2
     Ebm    F      Ebm    E      Ebm    F      Ebm    F

Next Change After doing the second part two times:
eb|--6------6------6------1-----------------------------------|
Bb|--6------8------6------1-----------------------------------|
Gb|--7--x3--8--x3--7--x3--2--x3-------------------------------|
Db|--8------8------8------3-----------------------------------|
Ab|--8------6------8------3-----------------------------------|
Eb|--6------6------6------1-----------------------------------|
     Ebm    E      Ebm    F

After doing Ebm, E, Ebm, F, return to:
eb|--6------1------6------6------6------1------6------1-------|
Bb|--6------1------6------8------6------1------6------1-------|
Gb|--7--x6--2--x6--7--x6--8--x6--7--x6--2--x6--7--x6--2--x6---|
Db|--8------3------8------8------8------3------8------3-------|
Ab|--8------3------8------6------8------3------8------3-------|
Eb|--6------1------6------6------6------1------6------1-------|x2
     Ebm    F      Ebm    E      Ebm    F      Ebm    F

Guitar Solo:
eb|--------------------------10-----------------11-----------------11----------------------------|
Bb|------------------------------11-----------------11---------11------11----------------13b~~~13|
Gb|---------------------------------10~~~~~~~-----------10~~~------------------------------------|
Db|----------------------------------------------------------------------------------------------|
Ab|--1--1--1b---3--3--3b-------------------------------------------------------------------------|
Eb|----------------------------------------------------------------------------------------------|

eb|----------------------------------------------3--------------------------------------|
Bb|---11~~------------------------------------------6-3---------------------------------|
Gb|--------10--12b~~~-12--10~~---------------5b~~--------5-3---5-3---5-3----------------|
Db|----------------------------------------------------------5-----5-----5--------------|
Ab|-------------------------------------------------------------------------------------|
Eb|-------------------------------------------------------------------------------------|

eb|--10--8--10--8--10p-8h-10p-8h--------8-------11--10------11--10--8~~~-----|
Bb|---------------------------------11-----11-----------11-------------------|
Gb|--------------------------------------------------------------------------|
Db|--------------------------------------------------------------------------|
Ab|--------------------------------------------------------------------------|
Eb|--------------------------------------------------------------------------|

eb|-------------------------------------------------------------------------------------------------|
Bb|-------------------------------------------------11------13--11----11-----10--8-----10--8------10|
Gb|---------------------------------------------12s-----12---------12--------10--8-----10--8------10|
Db|--------8-10h-8p--10b~~~8-------10-12h-10----------------------------------------10--------10----|
Ab|--8-10h----------------------8-------------------------------------------------------------------|
Eb|-------------------------------------------------------------------------------------------------|

Basically, back to:
eb|--6------6------6------1------6------6------6------1-------|
Bb|--6------8------6------1------6------8------6------1-------|
Gb|--7--x3--8--x3--7--x3--2--x3--7--x3--8--x3--7--x3--2-------|
Db|--8------8------8------3------8------8------8------3-------|
Ab|--8------6------8------3------8------6------8------3-------|
Eb|--6------6------6------1------6------6------6------1-------|
     Ebm    E      Ebm    F      Ebm    E      Ebm    F
Key:
b=Bend
~=Hold/Let Ring
s= slide
p= pull off
h= hammer on

Everything was done by ear. Might be wrong on the chord names, but the chords are 
correct. The ending chords to the solo are wrong,

but are a good improvisation to the solo.
Добавлено: 14.11.2013
Другие материалы по этой песне:
  • Аккорды и текст

Страница создана 14.11.2013
http://primanota.ru/buddy-holly/crying-wating-hoping-chords.htm
Привет, Гость.
Предлагаем пройти революционный курс по гитаре.
Подарок от PrimaNota.Ru, забирай!