PrimaNota.ru - самый крупный в мире бесплатный архив песенных текстов, аккордов, табулатур и нот


Buddy Guy - Something On Your Mind - бас-таба, видео

Регистрация Запомнить меня
Войти через:  Facebook Google Twitter Vk Yandex Mail.ru

Buddy Guy - Something On Your Mind - бас-таба, видео

Печатать
Просмотров: 145
~~~~Something On Your Mind     by Buddy Guy~~~~

   #5 from 'Damn Right I Got The Blues' album.

    Tabbed by Edward Lyon

    e-mail:  guitarlyonblues@yahoo.com

    standard tuning.  EADG


         (first riff..)
G[-------------------------------------------]
D[-------------------------------------------]
A[----------10-12-12-10-12-12-10-------------]  2x
E[-8~~~~--12---------------------------------]


         (second riff..)
G[-------------------------------------------]
D[----------10-12-12-10-12-12-10-------------]  
A[-8~~~~--12---------------------------------]
E[-------------------------------------------]


         (third riff..)
G[-------------------------------------------]
D[-----------12-14-14-12-14-14-12------------]
A[-10~~~~--14--------------------------------]
E[-------------------------------------------]




         (break.......then back to first riff)       
G[-------------------------------------------]
D[-------------------------------------------]
A[-------------------------------------------]
E[----3---5---6---(8)------------------------]




   that's it. pretty simple stuff.
   listen to song for order..  peace.



                                  



| /  slide up
| \  slide down
| h  hammer-on
| p  pull-off
| ~  vibrato
| +  harmonic
| x  Mute note
=============================================================================
Добавлено: 02.04.2012
Другие материалы по этой песне:
  • Аккорды и текст

Страница создана 02.04.2012
http://primanota.ru/buddy-guy/something-on-your-mind-chords.htm
Привет, Гость.
Предлагаем пройти революционный курс по гитаре.
Подарок от PrimaNota.Ru, забирай!