PrimaNota.ru - самый крупный в мире бесплатный архив песенных текстов, аккордов, табулатур и нот


Buddy Guy - Ninety Nine And A Half - бас-таба, видео

Регистрация Запомнить меня
Войти через:  Facebook Google Twitter Vk Yandex Mail.ru

Buddy Guy - Ninety Nine And A Half - бас-таба, видео

Печатать
Просмотров: 143
Ninety Nine And A Half.btab
Buddy Guy
TablEdited by Poppamies

 tempo 102       |       |        |       |       |       |        
|--------------------------------|--------------------------------|
|--------------------------------|--------------------------------|
|--------------------------------|--------------------------------|
|--------------------------------|--------------------------------|
 
 |       |       |       |        |       |       |       |        
|--------------------------------|--------------------------------|
|--------------------------------|------------------------0---2---|
|--------------------------------|----------------7/5-2-----------|
|--------------------------------|--------------------------------|
 
 |       |       |       |        |       |       |       |        
|--------4-----------4-------4---|2---2---0-----------------------|
|2---2-------2-----------2-------|----------------4-------0---1---|
|--------------------------------|--------------------2-----------|
|--------------------------------|--------------------------------|
 
 |       |       |       |        |       |       |       |        
|--------4-----------4-------4---|2-------0-----------------------|
|2---2-------2-----------2-------|----------------4-------0---1---|
|--------------------------------|--------------------2-----------|
|--------------------------------|--------------------------------|
 
 |       |       |       |        |       |       |       |        
|--------4-----------4-------4---|2-------0-----------------------|
|2---2-------2-----------2-------|----------------4-------0---1---|
|--------------------------------|--------------------2-----------|
|--------------------------------|--------------------------------|
 
 |       |       |       |        |       |       |       |        
|--------4-----------4-------4---|2---2---0-----------------------|
|2---2-------2-----------2-------|----------------4-------0---1---|
|--------------------------------|--------------------2-----------|
|--------------------------------|--------------------------------|
 
 |       |       |       |        |       |       |       |        
|--------4-----------4-------4---|2-------0-----------------------|
|2---2-------2-----------2-------|----------------4-------0---1---|
|--------------------------------|--------------------2-----------|
|--------------------------------|--------------------------------|
 
 |       |       |       |        |       |       |       |        
|--------4-----------4-------4---|2-------0---0-------------------|
|2-----------2-----------2-------|----------------4-------0---1---|
|--------------------------------|--------------------2-----------|
|--------------------------------|--------------------------------|
 
 |       |       |       |        |       |       |       |        
|--------4-----------4-------4---|2---2---0---0-------------------|
|2-----------2-----------2-------|----------------4-------0---1---|
|--------------------------------|--------------------2-----------|
|--------------------------------|--------------------------------|
 
 |       |       |       |        |       |       |       |        
|--------4-----------4-------4---|2-------0---------------2---1---|
|2-----------2-----------2-------|----------------4---2-----------|
|--------------------------------|--------------------------------|
|--------------------------------|--------------------------------|
 
 |       |       |       |        |       |       |       |        
|0---0-------0---0---0-------0---|2---2-------2---2---------------|
|--------0---------------0-------|--------2---------------0---1---|
|--------------------------------|--------------------2-----------|
|--------------------------------|--------------------------------|
 
 |       |       |       |        |       |       |       |        
|--------4-----------4-------4---|2-------0-----------------------|
|2---2-------2-----------2-------|----------------4-------0---1---|
|--------------------------------|--------------------2-----------|
|--------------------------------|--------------------------------|
 

Created with TablEdit http://www.tabledit.com/
Добавлено: 12.05.2012
Другие материалы по этой песне:
  • Аккорды и текст

Страница создана 12.05.2012
http://primanota.ru/buddy-guy/ninety-nine-and-a-half-chords.htm
Привет, Гость.
Предлагаем пройти революционный курс по гитаре.
Подарок от PrimaNota.Ru, забирай!