PrimaNota.ru - самый крупный в мире бесплатный архив песенных текстов, аккордов, табулатур и нот


Buddy Guy - Lay Lady Lay - таба, видео

Регистрация Запомнить меня
Войти через:  Facebook Google Twitter Vk Yandex Mail.ru

Buddy Guy - Lay Lady Lay - таба, видео

Печатать
Просмотров: 148
Авторы музыки: Bob Dylan
Авторы текста: Bob Dylan, Bob Dylan
-----------------------------------------------------------------------------
                              Buddy Guy
                 
                            Lay lady Lay
-----------------------------------------------------------------------------


Tabbed by:  Robin hood


 S = slide

 B = Bend

 R = Realese

 PB = prebend ( fastest than a bend )




Solo ( start to 2:30 )


e|------------12-14-12-------------------------------------------|
B|-----12b14------------12s14--12-------10-12-10--10-------------|
G|----------------------------------11---------------------------|
D|---------------------------------------------------------------|
A|---------------------------------------------------------------|
E|---------------------------------------------------------------|

e|---------------------------------------------------------------|
B|---12b14--12r-10-12-10---10---10---10--10-10---12s14-14-14--14-|
G|---------------------------------------------------------------|
D|---------------------------------------------------------------|
A|---------------------------------------------------------------|
E|---------------------------------------------------------------|

e|---12-12--12----10-10--10----10-10--10-------------------------|
B|---14-14--14----12-12--12----10-10--10---12-10-12pb-12r10---12-|
G|---------------------------------------------------------------|
D|---------------------------------------------------------------|
A|---------------------------------------------------------------|
E|---------------------------------------------------------------|

e|---------------------------12---------------10-----------------|
B|---12-10---10---12--12s14----14--12--10s12----12--10-10--------|
G|---------11----------------------------------------------------|
D|---------------------------------------------------------------|
A|---------------------------------------------------------------|
E|---------------------------------------------------------------|


     ( finish en 3:00 )
Добавлено: 04.04.2012
Другие материалы по этой песне:
  • Аккорды и текст

Страница создана 04.04.2012
http://primanota.ru/buddy-guy/lay-lady-lay-chords.htm
Привет, Гость.
Предлагаем пройти революционный курс по гитаре.
Подарок от PrimaNota.Ru, забирай!