PrimaNota.ru - самый крупный в мире бесплатный архив песенных текстов, аккордов, табулатур и нот


Buddy Guy - I Smell Trouble - бас-таба, видео

Регистрация Запомнить меня
Войти через:  Facebook Google Twitter Vk Yandex Mail.ru

Buddy Guy - I Smell Trouble - бас-таба, видео

Печатать
Просмотров: 49
Buddy Guy  
I smell trouble

Bass Tabs

Tuning : EADG
Tempo: 201 bpm 

Key signature: C

Intro: 00:01   
G|--------------|--------------|----------------|-
D|--------------|--------------|----------------|-
A|--------------|-----8--8-7-8-|-8----11--8-11-9|-
E|-----8--8-7-8-|-7-8----------|---10-----------|-

G|---------------|-
D|---------------|-
A|-11-9---8-10---|-
E|------8------8-|-


Verse1: 00:15 
G|---------------------||------------7--10--7-|-
D|------------7--------||---7--7-10-----------|-
A|---7--7-10----10-7-8-||-8-------------------|-
E|-8-------------------||---------------------|-
Lord knows I've tried
To do what's right

G|---------------------||-----------------------|-
D|--------------7--7/10||-10/8--8/7--7/---------|-
A|---7--7-10-10/-------||--------------10--10/8-|-
E|-8-------------------||-----------------------|-
One whole year of staying home
Both day and night

G|--------------7-10-7-||--------------7-10-7-|-
D|---7--7-10-----------||---7--7-10--10-------|-
A|-8-------------------||-8-------------------|-
E|---------------------||---------------------|-
'Cause I smell a mean trouble

G|---------------------||-----------------------|-
D|--------------7--7/10||-10/8--8/7--7/---------|-
A|---7--7-10-10/-------||--------------10--9/10-|-
E|-8-------------------||-----------------------|-
Way over yonder you know I heard a mean, yeah

G|-------------9-12-9--||-------------7--10-7-|-
D|----9--9-12----------||---7--7-10-----------|-
A|-10------------------||-8-------------------|-
E|---------------------||---------------------|-
Always in trouble people

G|--------------------------------------------|-
D|-----------------------------7--10----------|-
A|------7--7/8--8/9--9/10---10-------10-------|-
E|-8--8/--------------------------------------|-
Lord they just won't let me be


Verse2: 01:42 
G|---------------------||------------7--10--7-|-
D|------------7--------||---7--7-10-----------|-
A|---7--7-10----10-7-8-||-8-------------------|-
E|-8-------------------||---------------------|-
The people talk about me
Both night and day

G|---------------------------------------------|-
D|--------------7--7/101010--888--777----------|-
A|---7--7-10-10/----------------------101010/8-|-
E|-8-------------------------------------------|-
I said, Lord please forgive them
And go the other way

G|--------------7-10-7-||--------------7-10-7-|-
D|---7--7-10-----------||---7--7-10--10-------|-
A|-8-------------------||-8-------------------|-
E|---------------------||---------------------|-
'Cause I smell a mean trouble

G|---------------------||-----------------------|-
D|--------------7--7/10||-10/8--8/7--7/---------|-
A|---7--7-10-10/-------||--------------10--9/10-|-
E|-8-------------------||-----------------------|-
Lord I smell trouble ahead of me, oh yeah

G|-------------9-12-9--||-------------7--10-7-|-
D|----9--9-12----------||---7--7-10-----------|-
A|-10------------------||-8-------------------|-
E|---------------------||---------------------|-
Yes, we're always in trouble

G|--------------------------------------------|-
D|-----------------------------7--10----------|-
A|------7--7/8--8/9--9/10---10-------10-------|-
E|-8--8/--------------------------------------|-
Lord, they just won't let me be



Instrumental: 00:58 
G|---------------------||------------7--10--7-|-
D|------------7--------||---7--7-10-----------|-
A|---7--7-10----10-7-8-||-8-------------------|-
E|-8-------------------||---------------------|-

G|---------------------------------------------|-
D|--------------7--7/101010--888--777----------|-
A|---7--7-10-10/----------------------101010/8-|-
E|-8-------------------------------------------|-

G|--------------7-10-7-||--------------7-10-7-|-
D|---7--7-10-----------||---7--7-10--10-------|-
A|-8-------------------||-8-------------------|-
E|---------------------||---------------------|-

G|---------------------||-----------------------|-
D|--------------7--7/10||-10/8--8/7--7/---------|-
A|---7--7-10-10/-------||--------------10--9/10-|-
E|-8-------------------||-----------------------|-

G|-------------9-12-9--||-------------7--10-7-|-
D|----9--9-12----------||---7--7-10-----------|-
A|-10------------------||-8-------------------|-
E|---------------------||---------------------|-

G|--------------------------------------------|-
D|-----------------------------7--10----------|-
A|------7--7/8--8/9--9/10---10-------10-------|-
E|-8--8/--------------------------------------|-

Outro: 02:25
G|---------------------||---------------------|-
D|---------7-----------||---------7-----------|-
A|---7--10-------------||---7--10---8---------|-
E|-8---------8---------||-8-------------------|-
And from now on
I will not run and hide

G|---------------------||---------------------|-
D|---------7-----------||----------7-10-7-----|-
A|---7--10-------------||---7--10----------8--|-
E|-8---------8---------||-8-------------------|-
I'll face trouble with a smile
And hope it pass me by

G|--------------7-10-7-||--------------7-10-7-|-
D|---7--7-10-----------||---7--7-10--10-------|-
A|-8-------------------||-8-------------------|-
E|---------------------||---------------------|-
'Cause I smell a mean trouble

G|---------------------||-----------------------|-
D|--------------7--7/10||-10/8--8/7--7/---------|-
A|---7--7-10-10/-------||--------------10--9/10-|-
E|-8-------------------||-----------------------|-
Way over yonder, I say I heard a mean

G|-------------9-12-9--||---------------------|-
D|----9--9-12----------||---------------------|-
A|-10------------------||-8.------------------|-
E|---------------------||---------------------|-
Yes, we're always in trouble

G|----------|----------||----------|----------|-
D|----------|----------||----------|----------|-
A|-10-9-8---|-10-9-8---||-10g------|----------|-
E|--------8-|--------8-||-------8~-|-8888--8~-|-
They just won't, they just won't
Lord, they just won't let me be, oh yeah



End: 03:17
                


Tablature Legend ----------------  
| S  slap 
| P  pop 
| x  mute note 
| /  slide up 
| \  slide down 
| h  hammer-on 
| p  pull-off 
| g  grace note 
| ~  vibrato 
| ^  brush up
Добавлено: 12.11.2015
Другие материалы по этой песне:
  • Аккорды и текст

Страница создана 12.11.2015
http://primanota.ru/buddy-guy/i-smell-trouble-chords.htm
Привет, Гость.
Предлагаем пройти революционный курс по гитаре.
Подарок от PrimaNota.Ru, забирай!