PrimaNota.ru - самый крупный в мире бесплатный архив песенных текстов, аккордов, табулатур и нот


Buddy Guy - Buddys Groove - таба, видео

Регистрация Запомнить меня
Войти через:  Facebook Google Twitter Vk Yandex Mail.ru

Buddy Guy - Buddys Groove - таба, видео

Печатать
Просмотров: 181
Buddy Guy: Buddy's Groove
This Is my First tab please forgive me if it's Wrong
*This tab is the property of the creator TeddyG10594 any questions should be sent 
to tgrock2@aim.com*
Gtr.1 Intro:
E|--10-~-----------------------------------13-~-----------------------|
B|--10-~-----------------------------------13-~-----------------------|
G|- 11-~-----------------------------------14-~-----------------------|
D|- 12-~-----------------------------------15-~-----------------------|
A|- 10-~-----------------------------------13-~-----------------------|
E|--10-~-----------------------------------13-~-----------------------|


Bass
G|---------------------7------------- 7-------------------------------|
D|--------------------------------------------------15--------------15|
A|---------------5- 5-----------5--5----------------------------------|
E|-------------------------------------------13-----------13--13------|


E|--15-~---------------------------------------------------------|
B|--15-~---------------------------------------------------------|
G|--16-~---------------------------------------------------------|
D|--17-~---------------------------------------------------------|
A|--15-~---------------------------------------------------------|
E|--15--~--------------------------------------------------------|

G|-------------------------------|
D|----------17~------------------|
A|-------------------------------|
E|----15---------15-16-17--------|


Piano Plus Bass For 8 repetitions


G|----------7--------------7-------- 7-------------7--------7--------- 7-|
D|-*---------------------------------------------------------------------|
A|-*--5-5-------5-5-5-5------5-5-------5-5-5-5--------5-5-----5-5-5-5----|
E|-----------------------------------------------------------------------|


G|---------7-----------------------------------------------|
D|------------------------------------------------------*--|
A|---5-5------5--6--7----------------------------------*---|
E|---------------------------------------------------------|

Piano solo


Main chord: play 2 times
E|------10-10--x-x-x-x-10-10----13-13-x-x-x-x-13-13---15-15-x-x-x-x-15-15-|
B|------10-10--x-x-x-x-10-10----13-13-x-x-x-x-13-13---15-15-x-x-x-x-15-15-|
G|------11-11--x-x-x-x-11-11----14-14-x-x-x-x-14-14---16-16-x-x-x-x-16-17-|
D|------12-12--x-x-x-x-12-12----15-15-x-x-x-x-15-15---17-17-x-x-x-x-17-17-|
A|----- 10-10--x-x-x-x-10-10----13-13-x-x-x-x-13-13---15-15-x-x-x-x-15-15-|
E|------10-10--x-x-x-x-10-10----13-13-x-x-x-x-13-13---15-15-x-x-x-x-15-15 |

For Bass it is constant repetition of main groove however feel free to jam in tempo and key
G|---------7----------7-------7----------7---------------------7--------|
D|----------------------------------------------------------------------|
A|----5-5---5-5-5-5------5 5-----5-5-5-5-------5-5-----5-6-7------------|
E|----------------------------------------------------------------------|


E|---10-10-x-x-x-x-10-10--------------------------------------|
B|---10-10-x-x-x-x-10-10--------------------------------------|
G|---11-11-x-x-x-x-11-11--------------------------------------|
D|---12-12-x-x-x-x-12-12--------------------------------------|
A|---10-10-x-x-x-x-10-10--------------------------------------|
E|---10-10-x-x-x-x-10-10--------------------------------------|

Solo:
e|-----------------------------------------------------------------------|
B|--10--------------------13b--13-p-10-----------------------------------|
G|--10--12-10-10-12--------------------12-p-10------------10-------------|
D|-----------------------------------------------12-p-10-----------------|
A|-----------------------------------------------------------------------|
E|-----------------------------------------------------------------------|

Soloing of Saxophone

Main riff
e|-------------------------------------------------------------------------|
B|--------------10--------12-------10--12----------------------------------|
G|------12-12---10--------12-------10--12----------------------------------|
D|------12-12--------12--------12------------------------------------------|
A|-------------------------------------------------------------------------|
E|-------------------------------------------------------------------------|

From here the sax and guitar are pretty intertwined you can improvise off of the d Blues.
b-Bend up a whole step
p-pull off
~ sustain(hold)
Добавлено: 10.03.2012
Другие материалы по этой песне:
  • Аккорды и текст

Страница создана 10.03.2012
http://primanota.ru/buddy-guy/buddys-groove-chords.htm
Привет, Гость.
Предлагаем пройти революционный курс по гитаре.
Подарок от PrimaNota.Ru, забирай!