PrimaNota.ru - самый крупный в мире бесплатный архив песенных текстов, аккордов, табулатур и нот


Bud Boyz - Need No Leo - таба, видео

Регистрация Запомнить меня
Войти через:  Facebook Google Twitter Vk Yandex Mail.ru

Bud Boyz - Need No Leo - таба, видео

Печатать
Просмотров: 38
-------------------------------------------------------------------------------
                             Need No Leo - Bud Boyz
-------------------------------------------------------------------------------
Tabbed by: Meme Phillips
E-mail: budboyz@gmail.com

Tuning: Drop D (DADGBE)

e|----------------------------------|
B|----------------------------------|
G|----------------------------------|    x3
D|---0--0--0--0--0--0--0--0--0--0--0|
A|--0--0--0--0--0--0--0--0--0--0--0-|   
E|-2--3--5--7--9--7--5--3--2--0--0--|

e|-------------------------------------------------------------------|
B|-------------------------------------------------------------------|
G|----------12-----------10------------9-------------7---------------|    x3
D|-0-0-0-0---0--0-0-0-0---0--0-0-0-0---0---0-0-0-0---0-----0-3-2-b2-0|  
A|-0-0-0-0--10--0-0-0-0---8--0-0-0-0---7---0-0-0-0---5----------3----|    
E|-0-0-0-0------0-0-0-0------0-0-0-0-------0-0-0-0-------------------|



************************************

| /   slide up
| \   slide down
| h   hammer-on
| p   pull-off
| ~   vibrato
| +   harmonic
| x   Mute note
| b   Bend
| pb  Pre-bend
| br  Bend release
| pbr Pre-bend release
| brb Bend release bend

************************************
Добавлено: 04.12.2015
Другие материалы по этой песне:
  • Аккорды и текст

Страница создана 04.12.2015
http://primanota.ru/bud-boyz/need-no-leo-chords.htm
Привет, Гость.
Предлагаем пройти революционный курс по гитаре.
Подарок от PrimaNota.Ru, забирай!