PrimaNota.ru - самый крупный в мире бесплатный архив песенных текстов, аккордов, табулатур и нот


Bucko And Champs - Frosty The Yobbo - аккорды и текст, видео

Регистрация Запомнить меня
Войти через:  Facebook Google Twitter Vk Yandex Mail.ru

Bucko And Champs - Frosty The Yobbo - аккорды и текст, видео

Печатать
Просмотров: 165
Уроки эстрадного вокала в Санкт-Петербурге
Frosty The Yobbo
Bucko And Champs
Frosty the Yobbo
by Bucko & Champs

Any corrections feel free to shoot me an e-mail. Cheers.


Intro: D F C G F  C 

Riff:
e|----0----0----2----3-----0----0----2----3---|
B|----1----0----3----0-----1----0----3----0---|
G|----0----0----2----0-----0----0----2----0---|
D|----2-------0------0-----2-------0------0---|
A|--3----0-----------2---3----0-----------2---|
E|-----------------3--------------------3-----|


C
Frosty the Yobbo 
F           C
Got out on parole
    F                 C 
The judge said he had no respect 
    D              G
And little self control
 
C          
Frosty the Yobbo 
    F         C
As everybody knows
     F               C 
Is a snowman with an attitude 
      G           C
And a carrot for a nose 


Riff:
e|----0----0----2----3-----0----0----2----3---|
B|----1----0----3----0-----1----0----3----0---|
G|----0----0----2----0-----0----0----2----0---|
D|----2-------0------0-----2-------0------0---|
A|--3----0-----------2---3----0-----------2---|
E|-----------------3--------------------3-----|


    C 
The kids chucked snowballs at him 
        F                  C
With a non-stop whack whack whack 
         F                 C
But they got more than they bargained for 
        D                  G
When he up and chucked 'em back
 
     C
The police called in the special squad 
    F                C
They cordoned off the park 
      F                C
They finally got their snowman when 
     G                C
They jumped him after dark 


Riff:
e|----0----0----2----3-----0----0----2----3---|
B|----1----0----3----0-----1----0----3----0---|
G|----0----0----2----0-----0----0----2----0---|
D|----2-------0------0-----2-------0------0---|
A|--3----0-----------2---3----0-----------2---|
E|-----------------3--------------------3-----|


      C
They locked him in the cooler 
     F                C
They couldn't let him thaw   
     F               C
A magistrates will not convict 
   D            G
A puddle on the floor 

     C
The sergeant handcuffed Frosty 
   F                 C
In case of an escape bid 
    F                 C
"We can't have Yobbo snowmen out there 
 G              C
Frightening the kids" 


Riff:
e|----0----0----2----3-----0----0----2----3---|
B|----1----0----3----0-----1----0----3----0---|
G|----0----0----2----0-----0----0----2----0---|
D|----2-------0------0-----2-------0------0---|
A|--3----0-----------2---3----0-----------2---|
E|-----------------3--------------------3-----|


Mad Kazoo/Whistle Instrumental Verse
Chords: C  F  C  F  C  D  G
        C  F  C  F  C  G  C

Riff:
e|----0----0----2----3-----0----0----2----3---|
B|----1----0----3----0-----1----0----3----0---|
G|----0----0----2----0-----0----0----2----0---|
D|----2-------0------0-----2-------0------0---|
A|--3----0-----------2---3----0-----------2---|
E|-----------------3--------------------3-----|


C
Frosty the Yobbo 
   F               C
Is now a different bloke 
   F             C
He only chucks a snowball when 
      D         G
He's heavily provoked 
C
Frosty the Yobbo 
   F         C
As everybody knows 
     F                C
Is a snowman with an attitude 
      G           C
And a carrot for a nose

Riff:
e|----0----0----2----3-----0----0----2----3---|
B|----1----0----3----0-----1----0----3----0---|
G|----0----0----2----0-----0----0----2----0---|
D|----2-------0------0-----2-------0------0---|
A|--3----0-----------2---3----0-----------2---|
E|-----------------3--------------------3-----|


Repeat Riff to Fade
Добавлено: 25.06.2015
Вам также может быть интересно:
Другие материалы по этой песне:
  • Аккорды и текст

Страница создана 25.06.2015
http://primanota.ru/bucko-and-champs/frosty-yobbo-chords.htm
Привет, Гость.
Предлагаем пройти революционный курс по гитаре.
Подарок от PrimaNota.Ru, забирай!