PrimaNota.ru - самый крупный в мире бесплатный архив песенных текстов, аккордов, табулатур и нот


Buckner And Garcia - Pac-man Fever - текст песни, таба, бас-таба, видео

Регистрация Запомнить меня
Войти через:  Facebook Google Twitter Vk Yandex Mail.ru

Buckner And Garcia - Pac-man Fever - текст песни, таба, бас-таба, видео

Печатать
Просмотров: 181
pac-man fever


buckner & garcia


TRANSCRIBED BY RUDY GUZMAN


guzman_84@hotmail.com


gt1
e:-----------------------|
B:-5-5--------5-5--------|
G:-5-5--------5-5--------|
D:-5-5--------5-5--------|
A:-3-3--------3-3--------|
E:-----6-5p3-------6-5p3-|
gt2                                               
e:-----------------------------|
B:-----------------------------|
G:-9--9---7-6----9--9---7-6/4--|
D:-10-10--8-7-x--10-10--8-7/5--|
A:-10-10--8-7-x--10-10--8-7/5--|
E:-8--8---6-5-x--8--8---6-5/3--|


  gt1
e:--------------------------------|
B:-10-10-----------10-10----------|
G:-10-10-----------10-10----------|
D:-10-10-----------10-10----------|
A:-8--8------------8--8-----------|
E:--------11-10p8---------11-10p8-|
  gt2
e:-----------------------------|
B:-10-10--8-7-x--10-10--8-7/5--|
G:-10-10--8-7-x--10-10--8-7/5--|
D:-10-10--8-7-x--10-10--8-7/5--|
A:-8--8---6-5-x--8--8---6-5/3--|
E:-----------------------------|

  chrous
e:----------------------------------------------------------------------------|
B:-5-5-5-5-5-5-5-5-5--3-3-3-3-3-3-3-3-3---------------------8-8-8-8-8-8-8-8-8-|
G:-5-5-5-5-5-5-5-5-5--3-3-3-3-3-3-3-3-3--2-2-2-2-2-2-2-2-2--8-8-8-8-8-8-8-8-8-|
D:-5-5-5-5-5-5-5-5-5--3-3-3-3-3-3-3-3-3--3-3-3-3-3-3-3-3-3--8-8-8-8-8-8-8-8-8-|
A:-3-3-3-3-3-3-3-3-3--1-1-1-1-1-1-1-1-1--3-3-3-3-3-3-3-3-3--6-6-6-6-6-6-6-6-6-|
E:---------------------------------------1-1-1-1-1-1-1-1-1--------------------|

e:---------------------------------------------------------------------------|
B:-5-5-5-5-5-5-5-5-5--3-3-3-3-3-3-3-3-3--------------------------------------|
G:-5-5-5-5-5-5-5-5-5--3-3-3-3-3-3-3-3-3--2-2-2-2-2-2-2-2-2-2-2-2-2-2-2-2-2-2-|
D:-5-5-5-5-5-5-5-5-5--3-3-3-3-3-3-3-3-3--3-3-3-3-3-3-3-3-3-3-3-3-3-3-3-3-3-3-|
A:-3-3-3-3-3-3-3-3-3--1-1-1-1-1-1-1-1-1--3-3-3-3-3-3-3-3-3-3-3-3-3-3-3-3-3-3-|
E:---------------------------------------1-1-1-1-1-1-1-1-1-1-1-1-1-1-1-1-1-1-|

e:----------------------------------------------------------------------------------|
B:-5-5-5-5-5-5-5-5-5--3-3-3-3-3-3-3-3-3---------------------8-8-8-8-8-8-8-8-8--5-/--|
G:-5-5-5-5-5-5-5-5-5--3-3-3-3-3-3-3-3-3--2-2-2-2-2-2-2-2-2--8-8-8-8-8-8-8-8-8--5-/--|
D:-5-5-5-5-5-5-5-5-5--3-3-3-3-3-3-3-3-3--3-3-3-3-3-3-3-3-3--8-8-8-8-8-8-8-8-8--5-/--|
A:-3-3-3-3-3-3-3-3-3--1-1-1-1-1-1-1-1-1--3-3-3-3-3-3-3-3-3--6-6-6-6-6-6-6-6-6--3-/--|
E:---------------------------------------1-1-1-1-1-1-1-1-1--------------------------|


e:---------------------------------------------------|
B:-10---10-10---10---10-10---12---12-12---12---12-12-|
G:-10---10-10---10---10-10---12---12-12---12---12-12-|
D:-10---10-10---10---10-10---12---12-12---12---12-12-|
A:-8----8--8----8----8--8----10---10-10---10---10-10-|
E:---------------------------------------------------|


  solo
e:---------------------------------------------------------------------17ah-|
B:-19bf-19b-19b-19b-19b-19b-19b-19b-19b-19bp16----------16----16-17-19------|
G:---------------------------------------------18-16-18----18---------------|
D:--------------------------------------------------------------------------|
A:--------------------------------------------------------------------------|
E:--------------------------------------------------------------------------|

e:-20bf-20b-20b--20bfp17---------------20b--20--17---------------------------------------|
B:-----------------------20p17---------------------20-17h20p17----17--20----17-----------|
G:-----------------------------19-17---------------------------19--------19----17----17--|
D:--------------------------------------------------------------------------------19-----|
A:---------------------------------------------------------------------------------------|
E:---------------------------------------------------------------------------------------|

e:-----------------------------------------15----------------------------------------|
B:-18b-18b-18b-18b-18bp15-18b--18b~~~--18-----18-15---------------------19-17--------|
G:--------------------------------------------------17-15----------------------------|
D:--------------------------------------------------------17-17-(17)/19-------17~~~/-|
A:-----------------------------------------------------------------------------------|
E:-----------------------------------------------------------------------------------|

                   ---
e:----------------/---------------------------------------------------------------20b~~-|
B:---------------/-20----------------------17-20-19-17-------------------------17-------|
G:-17-17~~~-19bf/-----19p17-17~~~~--17h19--------------20-19-17h19p17----17-19----------|
D:--------------------------------------------------------------------19----------------|
A:--------------------------------------------------------------------------------------|
E:--------------------------------------------------------------------------------------|

  verse

gt1
e:-----------------------|
B:-5-5--------5-5--------|
G:-5-5--------5-5--------|
D:-5-5--------5-5--------|
A:-3-3--------3-3--------|
E:-----6-5p3-------6-5p3-|
gt2                                               
e:-----------------------------|
B:-----------------------------|
G:-9--9---7-6----9--9---7-6/4--|
D:-10-10--8-7-x--10-10--8-7/5--|
A:-10-10--8-7-x--10-10--8-7/5--|
E:-8--8---6-5-x--8--8---6-5/3--|


  gt1
e:--------------------------------|
B:-10-10-----------10-10----------|
G:-10-10-----------10-10----------|
D:-10-10-----------10-10----------|
A:-8--8------------8--8-----------|
E:--------11-10p8---------11-10p8-|
  gt2
e:-----------------------------|
B:-10-10--8-7-x--10-10--8-7/5--|
G:-10-10--8-7-x--10-10--8-7/5--|
D:-10-10--8-7-x--10-10--8-7/5--|
A:-8--8---6-5-x--8--8---6-5/3--|
E:-----------------------------|


  chrous
e:----------------------------------------------------------------------------|
B:-5-5-5-5-5-5-5-5-5--3-3-3-3-3-3-3-3-3---------------------8-8-8-8-8-8-8-8-8-|
G:-5-5-5-5-5-5-5-5-5--3-3-3-3-3-3-3-3-3--2-2-2-2-2-2-2-2-2--8-8-8-8-8-8-8-8-8-|
D:-5-5-5-5-5-5-5-5-5--3-3-3-3-3-3-3-3-3--3-3-3-3-3-3-3-3-3--8-8-8-8-8-8-8-8-8-|
A:-3-3-3-3-3-3-3-3-3--1-1-1-1-1-1-1-1-1--3-3-3-3-3-3-3-3-3--6-6-6-6-6-6-6-6-6-|
E:---------------------------------------1-1-1-1-1-1-1-1-1--------------------|

e:---------------------------------------------------------------------------|
B:-5-5-5-5-5-5-5-5-5--3-3-3-3-3-3-3-3-3--------------------------------------|
G:-5-5-5-5-5-5-5-5-5--3-3-3-3-3-3-3-3-3--2-2-2-2-2-2-2-2-2-2-2-2-2-2-2-2-2-2-|
D:-5-5-5-5-5-5-5-5-5--3-3-3-3-3-3-3-3-3--3-3-3-3-3-3-3-3-3-3-3-3-3-3-3-3-3-3-|
A:-3-3-3-3-3-3-3-3-3--1-1-1-1-1-1-1-1-1--3-3-3-3-3-3-3-3-3-3-3-3-3-3-3-3-3-3-|
E:---------------------------------------1-1-1-1-1-1-1-1-1-1-1-1-1-1-1-1-1-1-|




hillo son mex

14/03/10
Добавлено: 17.06.2012
Вам также может быть интересно:
Другие материалы по этой песне:
  • Аккорды и текст

Страница создана 07.04.2012
http://primanota.ru/buckner-and-garcia/pac-man-fever-chords.htm
Привет, Гость.
Предлагаем пройти революционный курс по гитаре.
Подарок от PrimaNota.Ru, забирай!