PrimaNota.ru - самый крупный в мире бесплатный архив песенных текстов, аккордов, табулатур и нот


Buckethead - Welcome To Buckethead Land - аккорды и текст, таба, бас-таба, видео

Регистрация Запомнить меня
Войти через:  Facebook Google Twitter Vk Yandex Mail.ru

Buckethead - Welcome To Buckethead Land - аккорды и текст, таба, бас-таба, видео

Печатать
Просмотров: 375
Welcome To Buckethead Land
Buckethead
Buckethead - Welcome to Buckethead Land


e|----------------------------------------
B|----------------------------------------
G|----------------------------------------
D|-0-0-5-5-4-4-0-0------------------------
A|--0-0-0-0-0-0-0-0-0-4-5-----------------
E|-------------------------------3--------

 AH AH  AH     AHAH   AH     AH
e|-----------------------------------
B|-----------------------------------
G|-----------------------------------
D|---------------------------7-----5-
A|-----4---5---4-----4-5-------------
E|-2-2---2---2---3-3-----3-3---3-3---

 AH  AH  AH
e|--------------------------------------------
B|--------------------------------------------
G|-------------------7-6-4--------------------
D|-------------------------7-5-4--------------
A|-----4---5---4-----------------7-5-4--------
E|-2-2---2---2---3-3-------------------7-5-3--

e|--------------------------------------------
B|--------------------------------------------
G|--------------------------------------------
D|-4-X-X-2-4-X-X-5-X-5-2-4--------------------
A|-4-X-X-2-4-X-X-5-X-5-2-4--------------------
E|-2-X-X-0-2-X-X-3-X-3-0-2--------------------

He does sumthing kinda trill I won't repeat The notes DA!

e|--------------------------------------------
B|-12--14--15--20--19--17---------------------
G|--------------------------------------------
D|--------------------------------------------
A|--------------------------------------------
E|--------------------------------------------

===================================================
Добавлено: 09.09.2013
Другие материалы по этой песне:

Страница создана 16.03.2012
http://primanota.ru/buckethead/welcome-to-buckethead-land-chords.htm
Привет, Гость.
Предлагаем пройти революционный курс по гитаре.
Подарок от PrimaNota.Ru, забирай!