PrimaNota.ru - самый крупный в мире бесплатный архив песенных текстов, аккордов, табулатур и нот


Buckethead - The Hills Have Headcheese - таба, видео

Регистрация Запомнить меня
Войти через:  Facebook Google Twitter Vk Yandex Mail.ru

Buckethead - The Hills Have Headcheese - таба, видео

Печатать
Просмотров: 124
Artist : Buckethead
Song   : The Hills Have Headcheese
Album  : Pepper's Ghost
Tuning : Eb Ab Db Gb Bb Eb

this is what we have so far on the Buckethead Tabbers group so if any one has ny 
please post them.

eb|------------ ----------------- ----------|
Bb|-------------- ----------------- --------|
Gb|-------------- ----------------- --------|
Db|-10--10--10--5 -5-5-10--10--10-6 -6-6----|
Ab|-------------- ----------------- --------|
Eb|--8---8---8--3 -3-3--8---8---8-4 -4-4----|

eb|-------------- ----------------- --------|
Bb|-------------- ----------------- --------|
Gb|-------------- ----------------- --------|
Db|-11-11--11---6 -6-6-11-11-11---7 -7-7----|
Ab|-------------- ----------------- --------|
Eb|--9--9---9---4 -4-4---9--9--9--5 -5-5----|

eb|-------------- ----------------- --------|
Bb|-------------- ----------------- --------|
Gb|-------------- ----------------- --------|
Db|-12-12-12-7-7- 7-12-12-12-8-8-8- --------|
Ab|-------------- ----------------- --------|
Eb|-10-10-10-5-5- 5-10-10-10-6-6-6- --------|

eb|-------------- ----------------- --------------|
Bb|-------------- ----------------- --------------|
Gb|-------------- ----------------- --------------|
Db|-14-14-14-10-- -10-10-14-14-14-- 9-9-9---------|
Ab|-------------- ----------------- --------------|
Eb|-12-12-12--8-- -8---8-12-12-12-- 5-5-5---------|

second part
eb|-------------- ------11-10----16 -17-15-16-13----------|
Bb|-----------12- 11---------10---- ----------------- ----|
Gb|-------9-8---- ---9------------- ----------------- ----|
Db|-6-10--------- ----------------- ----------------- ----|
Ab|-------------- ----------------- ----------------- ----|
Eb|-------------- ----------------- ----------------- ----|

eb|-------------- ----------------- ---| |---------------- --|
Bb|-4------------ ----------------- ---| |-15------------- --|
Gb|-3------------ ----------------- ---| |---------------- --|
Db|-2------------ ----------------- ---| |---------------- --|
Ab|-1------------ ----------------- ---| |---------------- --|
Eb|------------0- 0-0-0-0-0-0-0-0-0 -0-| |---------------- --|

eb|-------------- --|-------------- |---------------- |------|
Bb|-------------- --|-------------- |---------------- |------|
Gb|-------------- --|-------------- |---------------- |------|
Db|------5------5 --|-----5------|- -----5------5-|-- ---5---|
Ab|-4-4--3--3s4-3 --|-4-4-3--4-3-|- -4-4-3--3s5-3-|-4 -4-3-3-|
Eb|-2-2-----1s2-- --|-2-2----2-1-|- -2-2----1s2---|-2 -2---1-|

eb|----------|--- --------|-------- ---|------------| |15b-|
Bb|----------|--- --------|-------- ---|------------| |----|
Gb|----------|--- --------|-------- ---|------------| |----|
Db|-----5----|--- ----5---|-------5 ---|--------5---| |----|
Ab|-4-4-3----|-4- 4-4-3---|-4-4-4-3 ---|--4-4-4-3---| |----|
Eb|-2-2------|-2- 2-2-----|-2-2-2-- ---|--2-2-2-----| |----|

   as tabbed by the nekryph
Eb|-------------------------------------------------- --------|
Bb|-------------------------------------------------- --------|
Gb|-------------------------------------------------- --------|
Db|-----------------5---4---4---6---4---4---5---4---4 ---6----|
Ab|---4---2---3-3---4---5---4---5---6---5---4---5---3 --------|
Eb|-3---3---4---------------------------------------- --------|


there, hopefully the nekryph will update on the groups page cuz he said he could tab the 
parts perfectly
Добавлено: 20.07.2012
Другие материалы по этой песне:
  • Аккорды и текст

Страница создана 20.07.2012
http://primanota.ru/buckethead/the-hills-have-headcheese-chords.htm
Привет, Гость.
Предлагаем пройти революционный курс по гитаре.
Подарок от PrimaNota.Ru, забирай!