PrimaNota.ru - самый крупный в мире бесплатный архив песенных текстов, аккордов, табулатур и нот


Buckethead - The Embalmer - таба, видео

Регистрация Запомнить меня
Войти через:  Facebook Google Twitter Vk Yandex Mail.ru

Buckethead - The Embalmer - таба, видео

Печатать
Просмотров: 256
Tabbed by:
Email:tomophilia99@yahoo.com

Tuning:

       There is no album version of this song yet and he usually plays it a little 
each time.  so this tab is from
 his performance in Aspen on 8/30 here is link
---http://www.youtube.com/watch?v=h0SkVWFMuZc&feature=related


The main riff and the part after are done with Buckethead's kill button(see video)
so git yerself one o' dem before you try it!!

Main Riff
e|---------------------------------------------------------------------------|
B|---------------------------------------------------------------------------|
G|---------------------------------------------------------------------------|
D|--4---4---5---3---3--------------------------------------------------------|
A|--4---4---5---3---3--------------------------------------------------------|
E|--2---2---3---1---1--------------------------------------------------------|


e|--5-4-3-2-3-4-5------------------------------------------------------------|
B|-----------------2-3-------------------------------------------------------|
G|---------------------------------------------------------------------------|
D|---------------------------------------------------------------------------|
A|---------------------------------------------------------------------------|
E|---------------------------------------------------------------------------|
The Emblamer!!!!

Back to main Riff x4 Then:
e|----20---17---------------17--15~-----17--15-------17----------------------|
B|----x-------18-----------------------------------------18------------------|
G|----x----------17--17-15----------15----------14---------------------------|
D|----x----------------------------------------------------------------------|
A|---------------------------------------------------------------------------|
E|---------------------------------------------------------------------------|

e|----20---17---------------17--15~-----17--15-------------------------------|
B|----x-------18-------------------------------------18~---------------------|
G|----x----------17--17-15----------15----------14---------------------------|
D|----x----------------------------------------------------------------------|
A|---------------------------------------------------------------------------|
E|---------------------------------------------------------------------------|
The Embalmer!!!! Back to Main Riff x4


Do this twice:
e|-------------------------------------------------------------------------------------|
B|-------------------------------------------------------------------------------------|
G|-9-----------------5-----------------7----6-------5----------------------------------|
D|-9-----------------5-----------------7----6-------5----------------------------------|
A|-7-----------------6-----------------5----4-------3----------------------------------|
E|----0-8p7p5-8p7p5-0---0-8p7p5-8p7p5-0--0-0---0-0----0-8p7p5-8p7p5-0------------------|
            PM                            PM    PM                           PM  PM      
   PM         PM                             PM

e|---------------------------------------------------------------------------|
B|---------------------------------------------------------------------------|
G|---------------------------------------------------------------------------|
D|-------------------------2h3p2h2p2h3p2~------------------------------------|
A|---------------------------------------------------------------------------|
E|-2-2-2-2-2-2-2-2-2-2-2-2---------------------------------------------------|
PM^^^^^^^^^^^^^^^^^^^^^^^^


The solo sounds like it's played in E harmonic minor(and i'm too lazy to tab it out)

| /  slide up
| \  slide down
| h  hammer-on
| p  pull-off
| ~  vibrato
| +  harmonic
| x  Mute note
===============================================================================
Добавлено: 03.06.2012
Другие материалы по этой песне:
  • Аккорды и текст

Страница создана 03.06.2012
http://primanota.ru/buckethead/the-embalmer-chords.htm
Привет, Гость.
Предлагаем пройти революционный курс по гитаре.
Подарок от PrimaNota.Ru, забирай!