PrimaNota.ru - самый крупный в мире бесплатный архив песенных текстов, аккордов, табулатур и нот


Buckethead - Sultans Massacre - таба, видео

Регистрация Запомнить меня
Войти через:  Facebook Google Twitter Vk Yandex Mail.ru

Buckethead - Sultans Massacre - таба, видео

Печатать
Просмотров: 164
Eb|----10-12----13-|----10-12-----10|-12----15----13-|12----10-12-----||
Bb|-10-------10----|-10--------10---|----10----10----|---10-------10--||
Gb|----------------|----------------|----------------|----------------||
Db|----------------|----------------|----------------|----------------||
Ab|----------------|----------------|----------------|----------------||
Eb|----------------|----------------|----------------|----------------||

Eb|-13----10-12---8|-7-8---10-8-10--||
Bb|----10-------6--|-----8----------||
Gb|----------------|----------------||
Db|----------------|----------------|| repeat
Ab|----------------|----------------||
Eb|----------------|----------------||

Eb|----------------|----------------|----------------|----------------||
Bb|----------------|----------------|----------------|----------------||
Gb|---7-9---10---7-|9---7-9---12---10-9---7-9---10---|7-9-------------||
Db|-7-----7----7---|--7-----7----7--|---7-----7----7-|----------------||
Ab|----------------|----------------|----------------|----------------||
Eb|----------------|----------------|----------------|----------------||

Eb|----------------||
Bb|----------------||
Gb|---5-4-5---7-5-7||
Db|-3-------5------||
Ab|----------------||
Eb|----------------||

Eb|----------------||
Bb|----------------||
Gb|----------------||
Db|----------------||
Ab|----------------||
Eb|-3-5-5~-3-5~~---||

Eb|----------------|----------------|----------------|----------------||
Bb|--9---9---------|-----9---9------|---------9---9--|----------------||
Gb|----9---9-8-9-11|-8~~---9---9-8-9|-11--8~~---9---9|-8-9-11--8~~----||
Db|----------------|----------------|----------------|----------------||
Ab|----------------|----------------|----------------|----------------||
Eb|----------------|----------------|----------------|----------------||

Eb|----------------|----------------|----------------||
Bb|----------------|----------------|----------------||
Gb|--6-8-9--6~-----|--8--9--11--8~~-|----------------||
Db|----------------|----------------|----------------||
Ab|----------------|----------------|----------------||
Eb|----------------|----------------|----------------||
Добавлено: 21.05.2012
Другие материалы по этой песне:

Страница создана 21.05.2012
http://primanota.ru/buckethead/sultans-massacre-chords.htm
Привет, Гость.
Предлагаем пройти революционный курс по гитаре.
Подарок от PrimaNota.Ru, забирай!