PrimaNota.ru - самый крупный в мире бесплатный архив песенных текстов, аккордов, табулатур и нот


Buckethead - Squid Ink - таба, видео

Регистрация Запомнить меня
Войти через:  Facebook Google Twitter Vk Yandex Mail.ru

Buckethead - Squid Ink - таба, видео

Печатать
Просмотров: 157
                           ¨Buckethead¨


                            Squid Ink


Tabbed By 'Toine'

my cover : http://www.youtube.com/watch?v=D-xP9DrducI


- The guitar is tuned down 3 whole steps -

A- Intro   (the open notes should be play lightly)

 |     repeat this part 3 times    |

---0--0--0--0---0---0--0--0--0---0-----------|
--10-10-11-10--11--13-11-10-10--11-----------|
---0--0--0--0---0---0--0--0--0---0-----------|
---------------------------------------------|
---------------------------------------------|
---------------------------------------------|

on the 4th time play this

---0--0--0--0---0---0--0-0-0-----------------|
--10-10-11-10--11--10--8-8-8~----------------|
---0--0--0--0---0---0--0-0-0-----------------|
---------------------------------------------|
---------------------------------------------|
---------------------------------------------|

repeat intro.

B - at 0.37 min

|repeat this part 3 times|
--------------------------|
--------------------------|
----------------3---------|
-------0------0---0-------|
-----5---5--6-------------|
---3----------------------|

4th time

------------------------|
------------------------|
-------3-------3--------|
-----0---0---0---0------|
---5-------6------------|
------------------------|

repeat part B 1 time

C - at 0.56 min

| repeat 4 times |
-----------------------|
-----------------------|
-10-10-10/12--7-7~-----|
--8--8--8/10--5-5~-----|
-----------------------|
-----------------------|

at 1.13 play part B

then play

D - at 1.31 min

 |   repeat 4 times    |
----------------------------|
----------------------------|
-------0----------------0~--|
-----3---3-----3------5-----|
---3-------3--------5-------|
-1-----------1----3---------|

E - at 1.48

|            repeat 4 times           |
----------------------------------------|
---11-11-10-11-10------------10---------|
---10-10----10-10---------12----12------|
---12----------12------12----------12~--|
---10---------------10------------------|
----------------------------------------|

then play part C followed by B
and then back to the intro


Please rate and comment my tab :)
Добавлено: 29.05.2012
Другие материалы по этой песне:

Страница создана 29.05.2012
http://primanota.ru/buckethead/squid-ink-chords.htm
Привет, Гость.
Предлагаем пройти революционный курс по гитаре.
Подарок от PrimaNota.Ru, забирай!