PrimaNota.ru - самый крупный в мире бесплатный архив песенных текстов, аккордов, табулатур и нот


Buckethead - Shadows Between The Sky - таба, видео

Регистрация Запомнить меня
Войти через:  Facebook Google Twitter Vk Yandex Mail.ru

Buckethead - Shadows Between The Sky - таба, видео

Печатать
Просмотров: 172
Уроки эстрадного вокала в Санкт-Петербурге
Part 1: 00:00-00:20 x2

E|-----------------------------------------------------------------|
B|-------0-------0-------0-------0-------0-------0-------0-------0-|
G|----13------11------13------11------13------11------13------11---|
D|-11------11------11------11------11------11------11------11------|
A|-----------------------------------------------------------------|
E|-----------------------------------------------------------------|

E|-------------------------|
B|-----0-----0-----0-----0-|
G|---9-----8-----9-----8---|
D|-7-----7-----7-----7-----|
A|-------------------------|
E|-------------------------|

Part 2: 00:20-00:47 x1

E|----------------------------------------------------|--------------------------|
B|-------0-------------------------0------------------|-------0------------0-----|
G|-----6---6----------4----------6---6----------4-----|-----9---9--------9---9---|
D|---6-------6----6-4---4-6----6-------6----6-4---4-6-|---9-------9----9-------9-|
A|-4------------4------------4------------4-----------|-7------------6-----------|
E|----------------------------------------------------|--------------------------|

E|----------------------------------------------------|--------------------------|
B|-------0-------------------------0------------------|-------0------------0-----|
G|-----6---6----------4----------6---6----------4-----|-----9---9--------9---9---|
D|---6-------6----6-4---4-6----6-------6----6-4---4-6-|---9-------9----9-------9-|
A|-4------------4------------4------------4-----------|-7------------6-----------|
E|----------------------------------------------------|--------------------------|

E|----------------------------------------------------|
B|-------0-------------------------0------------------|
G|-----6---6----------4----------6---6----------4-----|
D|---6-------6----6-4---4-6----6-------6----6-4---4-6-|
A|-4------------4------------4------------4-----------|
E|----------------------------------------------------|

Part 3: 00:47-01:22 x2

E|---------------------------------------------------------------|
B|---------------------------------------------------------------|
G|-----------6---------------4--------------6--------------------|
D|-6---6-7--------6---6-7---------6---6-7--------6---6-7---6---4-|
A|---4--------------4---------------4--------------4-------------|
E|---------------------------------------------------------------|

Part 4: 01:22-01:49 x3

E|-------------------|-------------------|-------------------|-----------------|
B|-------------------|-------------------|-------------------|-----------------|
G|-9-9-11-11-8-8-9-9-|-9-11-11-8-8-9-9-9-|-9-9-11-11-8-8-9-9-|-9-8-8-6-6-8-8-8-|
D|-------------------|-------------------|-------------------|-----------------|
A|-------------------|-------------------|-------------------|-----------------|
E|-------------------|-------------------|-------------------|-----------------|

Solo 1: 01:50-02:22 x1

  some parts may not be that accurate, its my best hit on it.
E|------------------------12-11-----------16-16-16-16\12-12-12-12p11-11-11-11p9-|
B|-9--9--9--9---------7/9-------12----------------------------------------------|
G|-8--8--8--8---9-6-9--------------11h13----------------------------------------|
D|-11-11-11-11------------------------------------------------------------------|
A|------------------------------------------------------------------------------|
E|------------------------------------------------------------------------------|

E|-7-7-7h9-9-------------------------------------------------------------------|
B|------------7--h9---9-7------------------------------------------------------|
G|------------------------9-8--------------------9----9h11-11-11-11-9h11p9-8h9-|
D|----------------------------9-9h11-11--11-9----------------------------------|
A|--------------------------------------------11-------------------------------|
E|-----------------------------------------------------------------------------|

E|-------------------------------------------------------------------------|
B|-------------------------------------------------------------------------|
G|-9h11---/16-16-16-16-16\14-14-14-14\13-13-13-13\11-11-11-11\9-9-9\8-9-11-|
D|-------------------------------------------------------------------------|
A|-------------------------------------------------------------------------|
E|-------------------------------------------------------------------------|

E|--------------|--------------------------------------------|
B|-9-12p9-------|-12p9---9h10---12p9---9h10---12p9---9h10-9--|
G|--------9-8h9-|------9------9------9------9------9---------|
D|--------------|--------------------------------------------|
A|--------------|--------------------------------------------|
E|--------------|--------------------------------------------|

----------------------------------------------|
--12p9---9h10---12p9---9h10---12p9---9h10-9---|
-------9------9------9------9------9----------|
----------------------------------------------|
----------------------------------------------|
----------------------------------------------|

E|---12p9---9h11---12p9---9h11---14p12---12p9----12p9---9h11---12p9---9h11-|
B|-9------9------9------9------9-------9-------9------9------9------9------|
G|-------------------------------------------------------------------------|
D|-------------------------------------------------------------------------|
A|-------------------------------------------------------------------------|
E|-------------------------------------------------------------------------|

--12p9---9h11-9\7-7h9-9--|
9------9-----------------|
-------------------------|
-------------------------|
-------------------------|
-------------------------|

Interlude: 02:23-02:39 x1

  Not sure how many times each note is played. It varies.
E|-------------------------------------------------------------------------------------|
B|-------------------------------------------------------------------------------------|
G|-11-11-11-11-11-11-9-9-9-------------------------8-8-8-8-8-9-9-9-9-9-11-11-11-11-11--|
D|-------------------------9-9-9-11-11-11-11-11-11-------------------------------------|
A|-------------------------------------------------------------------------------------|
E|-------------------------------------------------------------------------------------|

E|-----------------------------------------------------------------------------------------|
B|-9-9-9-9-9-12-12-12-12-12-17-17-17-17-17-16-16-16-16-16-12-12-12-14-14-14-9-9-9-10-10-10-|
G|-----------------------------------------------------------------------------------------|
D|-----------------------------------------------------------------------------------------|
A|-----------------------------------------------------------------------------------------|
E|-----------------------------------------------------------------------------------------|

E|------------------------------------------|
B|------------------------------------------|
G|-11-11-11-11-11-9-9-9-9-9-8-8-8-8-8\4-4---|
D|------------------------------------------|
A|------------------------------------------|
E|------------------------------------------|

Solo 2: 02:39-03:03

  Again, this is my best try on Buckethead's solo.
E|------------9---------------------------------9---------------|
B|---12---------------12-------9-------12-----------------------|
G|-9----9-9-9---9-9-9----9-9-9---9-9-9----9-9-9---9-9-9-9h11-11-|
D|--------------------------------------------------------------|
A|--------------------------------------------------------------|
E|--------------------------------------------------------------|

E|------------9---------------------------------9-------|---12-12-12-12p11-------|
B|---12---------------12-------9-------12---------------|------------------12-12-|
G|-9----9-9-9---9-9-9----9-9-9---9-9-9----9-9-9---9-9-9-|-9----------------------|
D|------------------------------------------------------|------------------------|
A|------------------------------------------------------|------------------------|
E|------------------------------------------------------|------------------------|

E|------------9---------------------------------9---------------|
B|---12---------------12-------9-------12-----------------------|
G|-9----9-9-9---9-9-9----9-9-9---9-9-9----9-9-9---9-9-9-9h11-11-|
D|--------------------------------------------------------------|
A|--------------------------------------------------------------|
E|--------------------------------------------------------------|

E|---7p4---7p4---7p4---7p4---7p4---7p4---7p4---7p4--|
B|-5-----5-----5-----5-----5-----5-----5-----5------|
G|--------------------------------------------------|
D|--------------------------------------------------|
A|--------------------------------------------------|
E|--------------------------------------------------|

-7p4---7p4---7p4---7p4---7p4---7p4---7p4---7p4-------|
-----5-----5-----5-----5-----5-----5-----5-----5-5---|
-----------------------------------------------------|
-----------------------------------------------------|
-----------------------------------------------------|
-----------------------------------------------------|

hope you like it.
Добавлено: 10.07.2012
Другие материалы по этой песне:

Страница создана 20.03.2012
http://primanota.ru/buckethead/shadows-between-the-sky-chords.htm
Привет, Гость.
Предлагаем пройти революционный курс по гитаре.
Подарок от PrimaNota.Ru, забирай!