PrimaNota.ru - самый крупный в мире бесплатный архив песенных текстов, аккордов, табулатур и нот


Buckethead - Sea Of Expanding Shapes - таба, видео

Регистрация Запомнить меня
Войти через:  Facebook Google Twitter Vk Yandex Mail.ru

Buckethead - Sea Of Expanding Shapes - таба, видео

Печатать
Просмотров: 139
Уроки эстрадного вокала в Санкт-Петербурге
Sea of Expanding Shapes by Buckethead
from Bermuda Triangle
tabbed by Aaron Anaya of ttabs.com

intro

e----6--------------9--------------11----------9--|
b----6--------------9--------------11----------9--|
g-------------------------------------------------|
d-------------------------------------------------|
a-------------------------------------------------|
E-------------------------------------------------|

the main riff is just like the intro, only you slide from note to note and strum it...
you can mute the B string if you want. as for the solo, that's something that's not
to be messed with...it's a great solo and I love it. I came across this song while
I was just messing around one day....sounds just like it.

main riff

e----6-6-6-6/9-9-9-9-9/11-11-11-11-11-9-9-9-9-9-|
b----x-x-x-x-x-x-x-x-x-x-x-x-x-x-x-x-x-x-x-x-x--|
g-----------------------------------------------|
d-----------------------------------------------|
a-----------------------------------------------|
e-----------------------------------------------|

nice melodic part (I may be missing some notes to make the full chord)

e--6-6-6-6-6-6-6-|
b--6-6-6-6-6h7p6-|
g--6-6-6-6-6-6-6-|
d----------------|
a----------------|
e----------------|

a little ways into the song, he throws in a pull off from the 11th fret to the 10th
to tweak the sound a little.

e----6-6-6-6/9-9-9-9-9/11-11-11p10-11-11p10-9-9-9-9-|
b---------------------------------------------------|
g---------------------------------------------------|
d---------------------------------------------------|
a---------------------------------------------------|
e---------------------------------------------------|


----------------------------------------------------------------------------

Sea of Expanding Shapes solo
tabbed by Doug Cartwright of www.ttabs.com

e---------------------------------------------------16-16p14h16p14-11-14----|
B---------s14b--14b-14b---14b-11----11~--------11--16--------------------11-|
G-----------------------------13---------13---------------------------------|
D---------------------------------------------------------------------------|
A---------------------------------------------------------------------------|
E---------------------------------------------------------------------------|

continued
e----------------------------------------------------------------------------|
B----11-14-------------------11~~--14p11----11~--------11--------------------|
G-13-------11~~-----11h13p11-------------13------11h13----13----11----11-----|
D----------------13------------------------------------------13----13----13~-|
A----------------------------------------------------------------------------|
E----------------------------------------------------------------------------|

continued (this little bit may not be 100% right, but sounds ok to me)
e--------------------------------11111111s14141414s16s11~--21-19s18s19-11~~-|
B-------------------11-14p11h14---------------------------------------------|
G-------------11-13---------------------------------------------------------|
D-11----11-13---------------------------------------------------------------|
A----13---------------------------------------------------------------------|
E---------------------------------------------------------------------------|

continued (3:00)
e-14p1114p1114p1114p1114b---------------------------------------------------|
B------------------------14~~-----------------------------------------------|
G---------------------------------------------------------------------------|
D---------------------------------------------------------------------------|
A---------------------------------------------------------------------------|
E---------------------------------------------------------------------------|

OK, thats as far as I'm going right now... if I work any more out I'll update it, but
should give you
a good starter. For anyone who's gonna attempt to improvise here, the scale is an 
D# Pentatonic
(I
think that's it's name :S)

e--------------------------------------11-14-16-|
B-----------------------------11-14-16----------|
G-----------------------11-13-------------------|
D-----------------11-13-------------------------|
A-----------11-13-------------------------------|
E---11--14--------------------------------------|

Good luck to everyone who tries it
Добавлено: 13.06.2012
Другие материалы по этой песне:

Страница создана 02.04.2012
http://primanota.ru/buckethead/sea-of-expanding-shapes-chords.htm
Привет, Гость.
Предлагаем пройти революционный курс по гитаре.
Подарок от PrimaNota.Ru, забирай!