PrimaNota.ru - самый крупный в мире бесплатный архив песенных текстов, аккордов, табулатур и нот


Buckethead - Sanctum - таба, видео

Регистрация Запомнить меня
Войти через:  Facebook Google Twitter Vk Yandex Mail.ru

Buckethead - Sanctum - таба, видео

Печатать
Просмотров: 157
the bass line

----------------------------------------|
----------------------------------------|
--7---7------15--14-----3-----2---------|
----------------------------------------|

guitar

-22--------------------------------------------|
-------20--19----------------------------------|
-----------------16~---------------------------|
-----------------------------------------------|
-----------------------------------------------|
-----------------------------------------------| 2 times

------------------------------------------------|
------------------------------------------------|
------------------------------------------------|
------5---7-7~----------------------------------|
--7---------------------------------------------|
------------------------------------------------|

then this riff comes.....where you play two guitars at the same time

|------------------------------------------------|
|---8-----7-8~-----------------------------------|
|-7---7-----------7~-----------------------------|
|------------------------------------------------|
|------------------------------------------------|
|------------------------------------------------|

play these 2 at same time

|-------------------------------------------------|
|-------------------------------------------------|
|-------------------------------------------------|
|-12~ 12~/slide down---9~~------------------------|
|-------------------------------------------------|
|-------------------------------------------------|

----------------------|---------------------------|
----------------------|---8-----7-8---------------|
----------------------|------7--------7-----------|
----------------------|-------------------5--5~---|
--9----9------12------|---------------------------|
----------------------|---------------------------|

-------------------------------------------------------|
-------------------------------------------------------|
--7------4---------------------------------------------|
-----5-------5-5~--------------------------------------|
-------------------------------------------------------|
-------------------------------------------------------|

the solo/lead

----------------------------------------------------------|
----------------------------------------------------------|
------------------12--------12(bend 1 step)----9----------|
------12---14---------------------------------------12----|
-14-------------------------------------------------------|
----------------------------------------------------------|

----------------------------------------------------------|
---15-----------------------------------------------------|
--------14---12---------14-------12--------12---14--------|
------------------14---------14-------14------------------|
----------------------------------------------------------|
----------------------------------------------------------|

----------------------------------------------------------|
----------------------------------------------------------|
---14---12------------------------------------------------|
-------------14--12---------------------------------------|
-----------------------14-13-12---10----------------------|
----------------------------------------------------------|

--15---17---15-14---15--14----------------------------------------------|
--------------------------------15--------------------------------------|
-------------------------------------14----16(half step bend)--16~~-----|
------------------------------------------------------------------------|
------------------------------------------------------------------------|
------------------------------------------------------------------------|

------------------------------------------------------------------------|
------------------------------------------------------------------15----|
--12--11-------------------------------12-11--------11--12--------------|
-----------14-12-----------12~~---------------12------------------------|
-------------------12-14------------------------------------------------|
------------------------------------------------------------------------|

--------------------------------------------------------------------------------|
---15--17-----------------------------------------------------------------------|
------------16--------12--11----------------------------------------------------|
--------------------------------14-12-------12--14---------7-7---10-9-----------|
-----------------------------------------14-----------12------------------------|
----------------------------------------------------------------------------0---|

-------------------------------------------------------------------------------|
------------------------------------------------------------------10--12--8----|
--12--11---------------------------------12--11--------------------------------|
-----------14--12---------------------------------14--12-----------------------|
--------------------14----12--12-14-----------------------14-------------------|
-------------------------------------------------------------------------------|
Добавлено: 23.02.2012
Другие материалы по этой песне:
  • Аккорды и текст

Страница создана 23.02.2012
http://primanota.ru/buckethead/sanctum-chords.htm
Привет, Гость.
Предлагаем пройти революционный курс по гитаре.
Подарок от PrimaNota.Ru, забирай!