PrimaNota.ru - самый крупный в мире бесплатный архив песенных текстов, аккордов, табулатур и нот


Buckethead - Random Killing - таба, видео

Регистрация Запомнить меня
Войти через:  Facebook Google Twitter Vk Yandex Mail.ru

Buckethead - Random Killing - таба, видео

Печатать
Просмотров: 129
this is almost the same thing as "I Come in Peace" off Giant robot, the intro 
is just a little longer and Maximum Bob rants like hell during the whole thing

~~~~~ ~~~ 
1|----12----12--------12----------12----12-----|
2|-------14--------------15-14-------14--------|
3|-14----------14--------------14----------14--|
4|---------------------------------------------|
5|---------------------------------------------|
6|---------------------------------------------|

1|----14-16-16b(17)r(16)b(17)r(16)p12----12----|
2|-14---------------------------------14-------|
3|---------------------------------------------|
4|---------------------------------------------|
5|---------------------------------------------|
6|---------------------------------------------|

1|----12----12--------12----------12----12-----|
2|-------14--------------15-14-------14--------|
3|-14----------14--------------14----------14--|
4|---------------------------------------------|
5|---------------------------------------------|
6|---------------------------------------------|

1|--12----------12----12---------14-16-16b(17)-|
2|-----15-14-------14---------14---------------|
3|-----------14----------14--------------------|
4|---------------------------------------------|
5|---------------------------------------------|
6|---------------------------------------------|

1|-r(16)b(17)r(16)p12----12-----|
2|--------------------14--------|
3|--------------------------14--|
4|------------------------------|
5|------------------------------|
6|------------------------------|

main riff (played most of the song)
guitar 1
~~~
1|----------------|
2|----------------|
3|----------------|
4|----------------|
5|-7--8--5--7--4--|
6|-5--6--3--5--2--|

overdub
all pinch harmonics
1|----------------|
2|10-11----10-----|
3|------12----11--|
4|----------------|
5|----------------|
6|----------------|

solo
I'm working on it

outro
1|-----------------------|
2|-----------------------|
3|-----------------------|
4|-----------------------|
5|-2/3-2/3-4-4-4-4-4-4-4-|
6|---------2-2-2-2-2-2-2-|

Добавлено: 16.04.2012
Другие материалы по этой песне:
  • Аккорды и текст

Страница создана 16.04.2012
http://primanota.ru/buckethead/random-killing-chords.htm
Привет, Гость.
Предлагаем пройти революционный курс по гитаре.
Подарок от PrimaNota.Ru, забирай!