PrimaNota.ru - самый крупный в мире бесплатный архив песенных текстов, аккордов, табулатур и нот


Buckethead - Nightrain - таба, видео

Регистрация Запомнить меня
Войти через:  Facebook Google Twitter Vk Yandex Mail.ru

Buckethead - Nightrain - таба, видео

Печатать
Просмотров: 145
Nightrain Solo - Buckethead

Tabbed by: Nicholas Jacquet
Email: nickjacquet@yahoo.com

Tuning: Eb,Ab,Db,Gb,Bb,Eb

Its not 100%, but not even the Bucket plays it through the 
same way every time

eb|---------------------------15-12-13-12----------------------------15-12--|
Bb|-----12-13-15-13-12---12-13------------15br-15-13-12-13-12---12-13-------|
Gb|12h14---------------14-------------------------------------14------------|
Db|-------------------------------------------------------------------------|
Ab|-------------------------------------------------------------------------|
Eb|-------------------------------------------------------------------------|

                                            (*play this pattern 7 or 8 times)

eb|13-12----------------------12--13p12-13h15p13p12--12-13p12-13h15p13p12)--|
Bb|-----15br-15-13-12-12h13h15--15----------------(*15----------------------|
Gb|-------------------------------------------------------------------------|
Db|-------------------------------------------------------------------------|
Ab|-------------------------------------------------------------------------|
Eb|-------------------------------------------------------------------------|

eb|19-19-19-19-19-19-19b20r19-17-15---15-17----------------------|
Bb|---------------------------------18------18-17-15-17b18r17-15~|
Gb|--------------------------------------------------------------|
Db|--------------------------------------------------------------|
Ab|--------------------------------------------------------------|
Eb|--------------------------------------------------------------|

                      (*Play this pattern through a few times)

eb|---------------------------------------------|
Bb|------15------15h17p15--15-17p15-17h18p17p15)|
Gb|-16-17---17-16-------(*17--------------------|
Db|---------------------------------------------|
Ab|---------------------------------------------|
Eb|---------------------------------------------|

eb|-------------------------------------------------------------------------|
Bb|-------------------------------------------------------------------------|
Gb|17-17-17-17-16-16-16-16-17-17-17-17-19-19-19-19-17-17-17-17-16-16-16-16--|
Db|-------------------------------------------------------------------------|
Ab|-------------------------------------------------------------------------|
Eb|-------------------------------------------------------------------------|

eb|--------------------------------------------------------------17--18p17--|
Bb|-----------20-20-20-20-18-18-18-18-17-17-17-17--------17h18h20--20-------|
Gb|17-17-17-17-----------------------------------19-17h19-------------------|
Db|-------------------------------------------------------------------------|
Ab|-------------------------------------------------------------------------|
Eb|-------------------------------------------------------------------------|

  (*play through this pattern a few times)

eb|----17-18p17-18h20p18p17)-|----------------------------------15-13p12----|
Bb|(*20----------------------|-15-------15-------17-----------13---------15-|
Gb|--------------------------|-14b16r14-14b16r14-15b17---12-14--------------|
Db|--------------------------|----------------------------------------------|
Ab|--------------------------|----------------------------------------------|
Eb|--------------------------|----------------------------------------------|

(Play through this pattern a few times

eb|(*12-13p12-13h15p13p12----------|
Bb|----------------------15)-------|
Gb|--------------------------------|
Db|--------------------------X\----|
Ab|--------------------------X\----|
Eb|--------------------------X\----|


************************************

| /   slide up
| \   slide down
| h   hammer-on
| p   pull-off
| ~   vibrato
| +   harmonic
| x   Mute note
| b   Bend
| pb  Pre-bend
| br  Bend release
| pbr Pre-bend release
| brb Bend release bend

************************************
Добавлено: 11.03.2012
Другие материалы по этой песне:
  • Аккорды и текст

Страница создана 11.03.2012
http://primanota.ru/buckethead/nightrain-chords.htm
Привет, Гость.
Предлагаем пройти революционный курс по гитаре.
Подарок от PrimaNota.Ru, забирай!