PrimaNota.ru - самый крупный в мире бесплатный архив песенных текстов, аккордов, табулатур и нот


Buckethead - Materilalizing The Disembodied - таба, видео

Регистрация Запомнить меня
Войти через:  Facebook Google Twitter Vk Yandex Mail.ru

Buckethead - Materilalizing The Disembodied - таба, видео

Печатать
Просмотров: 115
Materilalizing the Disembodied
Buckethead
From the album Decoding the tomb of bansheebot

Tuning: E flat (like most of his new stuff!)

Intro 0-10
------------|
------------|
---------4--|
-4-4--3--4--| x2
-4-4--3--2--|
-2-2--1-----|

-------------------------------------------------------------|
-------------------------------------------------------------|
-0h2--2-2-------------------------------------8-7-8----------|
-0h2--2-2-------------------------------------8-7-8----------| x3
-0----0-0-0-0-0-0-0-0-0-0-0-0-0-0-0-0-0-0-0-0-6-5-6----------|
-------------------------------------------------------------|

--------------------------------------------------------------|
--------------------------------------------------------------|
-0h2--2-2-----------------------------------------------------|
-0h2--2-2---------------------------------------------5-------| x1
-0----0-0-0-0-0-0-0-0-0-0-0-0-0-0-0-0-0-0-0-0-0-0-0-0-5-------|
------------------------------------------------------3-------|

Repeat those two sections again.

--------------------|
--------------------|
-----------9-8------|
-4--7-6-3--9-8------| x1
-4--7-6-3--7-6------|
-2--5-4-1-----------|

The next section is the only section im having trouble with (35-55 sec) I play a little 
when playing along with the track however i know its not exactly right. So if anyone can 
this section then great! Ive got the rest of it though.

---------------------------------------------------------|
---------------------------------------------------------|
-0h2--2-2-------------------------------------8-7-8------|
-0h2--2-2-------------------------------------8-7-8------| x1
-0----0-0-0-0-0-0-0-0-0-0-0-0-0-0-0-0-0-0-0-0-6-5-6------|
---------------------------------------------------------|

---------------------------------------------|
---------------------------------------------|
-0h2--2-2---------------------2--------------|
-0h2--2-2---------------------2----8-5-------| x1
-0----0-0-0-0-0-0-0-0-0-0-0-0-0----8-5-------|
-----------------------------------6-3-------|

-------------------------------------------------------------------|
-------------------------------------------------------------------|
-0h2--2-2-------------------------------------8-7-8----------------|
-0h2--2-2-------------------------------------8-7-8----------------| x1
-0----0-0-0-0-0-0-0-0-0-0-0-0-0-0-0-0-0-0-0-0-6-5-6----------------|
-------------------------------------------------------------------|

--------------------------------------------------------------------|
--------------------------------------------------------------------|
-0h2--2-2-----------------------------------------------------------|
-0h2--2-2----------------------------------------------5------------| x1
-0-----0-0-0-0-0-0-0-0-0-0-0-0-0-0-0-0-0-0-0-0-0-0-0-0-5------------|
-------------------------------------------------------3------------|

-17----------------------------------------------------------------------|
-----15-18-17------13-13-------------------------------------------------|
----------------14----------------17-------------------------------------|
---------------------------15-17------14-15-14------------------------0--|
-------------------------------------------------15-17-17----------------|
------------------------------------------------------------15-17-17-----|

repeat that 4 times

then 5th time he plays:

-17-----------------------------------------------------------------|
-----15-18-17------13-13--------------------------------------------|
----------------14--------------------17----------------------------|
--------------------------------15-17------14-15-14-----------------|
----------------------------------------------------------15-17-17--|
--------------------------------------------------------------------|

--------------------|
--------------------|
-7---5-5--7---3-3---|
-7---5-5--7---3-3---| x1
-5---3-3--5---1-1---|
--------------------|

-----------------------------------------------------------------------|
-----------------------------------------------------------------------|
-777-7-7-7-7---5-5-7-7----777-7-7--------------------------------------|
-777-7-7-7-7---5-5-7-7----777-7-7---7----7-3-3-3-7-5-3-2-5-3-2-0-------|
-555-5-5-5-5---3-3-5-5----555-5-5------5-------------------------------|
-----------------------------------------------------------------------|

Repeat that section 4 times
Добавлено: 13.06.2012
Другие материалы по этой песне:
  • Аккорды и текст

Страница создана 13.06.2012
http://primanota.ru/buckethead/materilalizing-the-disembodied-chords.htm
Привет, Гость.
Предлагаем пройти революционный курс по гитаре.
Подарок от PrimaNota.Ru, забирай!