PrimaNota.ru - самый крупный в мире бесплатный архив песенных текстов, аккордов, табулатур и нот


Buckethead - Lebron - таба, видео

Регистрация Запомнить меня
Войти через:  Facebook Google Twitter Vk Yandex Mail.ru

Buckethead - Lebron - таба, видео

Печатать
Просмотров: 254
                    "Slaughter House on the Prairie"
                              "Buckethead"
                                "LeBron"

                         Tabbed By Daniel Strain
                     Email danielstrain57@yahoo.com

 The intro/outro is probably a bit messed up I can't really hear that well 
 because of the rhythm guitar but the rest of this tab is gold hope you      
 enjoy! Comments/rating would be appreciated thanks. 
 
Lead Guitar
|--14--12--------------------------------------------------------|
|--------15-14-14-15--------------14-15-14--------12-------------|
|--------------------14-14-11-14------------11-14----14-12-11----|
|----------------------------------------------------------------|
|----------------------------------------------------------------|
|----------------------------------------------------------------|

|--14--12--------------------------------------------------------|
|--------15-14-14-15-14-12--------12---12s14-14-15-17--15-14-15--|
|---------------------------11h14--------------------------------|
|----------------------------------------------------------------|
|----------------------------------------------------------------|
|----------------------------------------------------------------|
 
|----------------------------------------------------------15-14-|
|--------------------------------------15-15-14-14-12--12--------|
|-14s11-11h14----------------------11----------------------------|
|-------------12h14-12-------12-14-------------------------------|
|----------------------14--14------------------------------------|
|----------------------------------------------------------------|

|-14-15-----|
|-------15--|
|-----------|
|-----------|
|-----------|
|-----------|

|--14--12---------------------------------------|
|--------15-14-14-15----------------15b---------|
|--------------------14-12-11-11-12------16-----|
|-----------------------------------------------|
|-----------------------------------------------|
|-----------------------------------------------|

Use Kill Switch
|------------------------------|
|------------------------------|
|------------------------------|X2
|--------------------------7---|
|----------------------5-5-----|
|-7-7-7-7-7-7-7-7-7-7----------|

|-----------14---------------------------------14-----------------------|
|-19-15-17-----14-14b-----------------19-15-17----14-14b----------------|
|-----------------------16-16-14-16-----------------------16-14-14-16---|
|-----------------------------------------------------------------------|
|-----------------------------------------------------------------------|
|-----------------------------------------------------------------------|

 55 Seconds
|------------------------------------------------------------------------|
|----------------------------------------15--17--15--14--14--------------|
|----------------------------14--16--18----------------------14----------|
|---------------14--16--17---------------------------------------16------|
|--14--16--17------------------------------------------------------------|
|------------------------------------------------------------------------|

*|---------------------------------------------------------------|
*|---------------------------------------------------------------|
*|---------------------------------------------------------------|
*|--------------------------5-----------------------------4------|
*|--9p5---9p5---9p5---9h5--------7p4---7p4----7p4---7p4----------|
*|------7-----7-----7-----7----------5-----5------5-----5--------|

|------------------------------------------------------|*
|------------------------------------------------------|*
|------------------------------------------------------|*X2
|--------------------------5---------------------------|*
|--9p5---9p5---9p5---9h5--------7p4---7p4--5p4---4h5---|*
|------7-----7-----7-----7----------5------3---3-------|*

|----------------------------------------------------------------|
|----------------------------------------------------------------|
|----------------------------------------------------------------|X2
|---7--7--7--7--5-5-5-5---7--7--7--7--5-5-5-5--------------------|
|---8--8--8--8--7-8-7-8---8--8--8--8--7-8-7-8--7-8-7-8-5-7-5-7---|
|--10-10-10-10--8-8-8-8--10-10-10-10--8-8-8-8--5-5-5-5-3-3-3-3---|

*|--6---6--8-------------------------|
*|--6---6--8-------------------------|
*|--7---7--9-------------------------|
*|--8---8-10-12----------------------|
*|--8---8-10-12------8----------8----|
*|--6---6--8-10--8h10--10--8h10--10--|

|--6---6--8------------------------------------|*
|--6---6--8------------------------------------|*
|--7---7--9------------------------------------|*X2
|--8---8-10--12---10h12p10----------8----------|*
|--8---8-10--12------------12p10h12---12-------|*
|--6---6--8--10--------------------------------|*


|----------------------------------------|
|----------------------------------------|
|----------------------------------------|
|--------------------5555555588887777----|
|---5555555588887777---------------------|
|----------------------------------------|

 1.52  This is my favorite part : )
|-----------3-2------------3-2------------2-3-------------5-5----|
|-----------3-3------------3-3------------3-3-------------3-3----|
|--4--4-----0-0-----4--4---0-0-----4--4---0-0------4--4---0-0----|X2
|--4--4-----4-4-----4--4---4-4-----4--4---4-4------4--4---4-4----|
|--2--2-------------2--2-----------2--2------------2--2---5-5----|
|----------------------------------------------------------------|

Use Kill switch
|------------------------------|
|------------------------------|
|------------------------------|X2
|--------------------------7---|
|----------------------5-5-----|
|-7-7-7-7-7-7-7-7-7-7----------|


|------------------------------|
|------------------------------|
|-44444444--7-7----------------|X6
|-44444444--7-7----------------|
|-22222222--5-5----------------|
|------------------------------|


|--------------------------------------------------3-3-3-2-2-2-----|
|-----------------3-3-3-2-2-2--------------3-3-5-5-------------3-3-|
|---------2-2-4-4-------------2-2----------------------------------|
|-----4-4------------------------------4-4-------------------------|
|-2-2------------------------------2-2-----------------------------|
|------------------------------------------------------------------|


|--------------------------|
|--------------------------|
|--------------------------|X4
|----4-0-------------------|
|--2-----0---0-5-0---------|
|----------3---------------|

|-----------3-2------------3-2------------2-3-------------5-5----|
|-----------3-3------------3-3------------3-3-------------3-3----|
|--4--4-----0-0-----4--4---0-0-----4--4---0-0------4--4---0-0----|X2
|--4--4-----4-4-----4--4---4-4-----4--4---4-4------4--4---4-4----|
|--2--2-------------2--2-----------2--2------------2--2---5-5----|
|----------------------------------------------------------------|

Then it ends with the opening riff

Rhythm Guitar this is what goes behind a lot of the song I'm sorry
I just couldn't put them over lapped so you know were it played it
really wouldn't be to hard to figure out : )
|----------------------------------------------------------------|
|----------------------------------------------------------------|
|----------------------------------------------------------------|
|----------------------------------------------------------------|
|--9-------------12---------------7---------------5--------------|
|--7-------------10---------------5---------------3--------------|

|----------------------------------------------------------------|
|----------------------------------------------------------------|
|----------------------------------------------------------------|
|----------------------------------------------------------------|
|---5--4--5--7---------------------------------------------------|
|---3--2--3--5---------------------------------------------------|

|----------------------------------------------------------------|
|----------------------------------------------------------------|
|----------------------------------------------------------------|
|----------------------------------6-7-9-7-----------------------|
|--9----7----4-5-7-5-4---9----7----4-5-7-5-----------------------|
|--7----5----2-3-5-3-2---7----5----------------------------------|


Добавлено: 01.04.2012
Другие материалы по этой песне:

Страница создана 01.04.2012
http://primanota.ru/buckethead/lebron-chords.htm
Привет, Гость.
Предлагаем пройти революционный курс по гитаре.
Подарок от PrimaNota.Ru, забирай!