PrimaNota.ru - самый крупный в мире бесплатный архив песенных текстов, аккордов, табулатур и нот


Buckethead - Last Train To Bucketheadland - таба, видео

Регистрация Запомнить меня
Войти через:  Facebook Google Twitter Vk Yandex Mail.ru

Buckethead - Last Train To Bucketheadland - таба, видео

Печатать
Просмотров: 164
As recorded by Buckethead
(From the 1994 Album GIANT ROBOT)

Transcribed by Phillip Hermans
        

Words by Buckethead & E. Wood Music by Buckethead
Arranged by Buckethead

Gtr I (E A D G B E) - 'Buckethead'
Gtr II (E A D G B E) - 'Buckethead'

 Drums & Nonse00:17
  Q=80
                       Dm7    Em                 Dm7
 4/4
  Gtrs I, II           Gtr I
                              ~
  Wx4          H.       E E   W          H.       E E
|------------|------------5-|-0--------|------------5-|
|------------|---------^3---|-0--------|---------^3---|
|------------|---------^2---|-0--------|---------^2---|
|------------|---------^0---|-2--------|---------^0---|
|------------|---------^0---|-2--------|---------^0---|
|------------|--------------|-0--------|--------------|


  Em                 Dm7    Em    C
  ~                         ~~
  W          H.       E E   E. E. E +H
|-0--------|------------5-|----0--0-(0)----|
|-0--------|---------^3---|----1--1-(1)----|
|-0--------|---------^2---|-0-----0-(0)----|
|-2--------|---------^0---|-2-----2-(2)----|
|-2--------|---------^0---|-2-----3-(3)----|
|-0--------|--------------|-0--------------|


            Dm7    Em                 Dm7
                   ~
    H.       E E   W          H.       E E
||-------------5-|-0--------|------------5-|
||o---------^3---|-0--------|---------^3---|
||----------^2---|-0--------|---------^2---|
||----------^0---|-2--------|---------^0---|
||o---------^0---|-2--------|---------^0---|
||---------------|-0--------|--------------|


  Em                 Dm7    Em    C
  ~
  W          H.       E E   E. E. E +H
|-0--------|------------5-|-------0-(0)-----||
|-0--------|---------^3---|----1--1-(1)----o||
|-0--------|---------^2---|-0-----0-(0)-----||
|-2--------|---------^0---|-2-----2-(2)-----||
|-2--------|---------^0---|-2-----3-(3)----o||
|-0--------|--------------|-0---------------||


             Em    C                  Dm7    Em
             ~~                              ~
  W          E. E. E +H       H.       E E   W
|----------|-0--0--0--------|------------5-|-0--------|
|----------|-0--1--1-(1)----|---------^3---|-0--------|
|----------|-0-----0-(0)----|---------^2---|-0--------|
|----------|-2-----2-(2)----|---------^0---|-2--------|
|----------|-2-----3-(3)----|---------^0---|-2--------|
|----------|-0--------------|--------------|-0--------|


          Dm7    Em                 Dm7    Em    C
                 ~
  H.       E E   W          H.       E E   E. E. H    +E
|------------5-|-0--------|------------5-|----0--0----------|
|---------^3---|-0--------|---------^3---|----1--1----(1)---|
|---------^2---|-0--------|---------^2---|-0-----0----(0)---|
|---------^0---|-2--------|---------^0---|-2-----2----(2)---|
|---------^0---|-2--------|---------^0---|-2-----3----(3)---|
|--------------|-0--------|--------------|-0----------------|


            Dm7    Em    C                  Dm7    Em
                                                   ~
    H.       E E   E. E. H    +E    H.       E E   W
||-------------5-|----0--0----(0)-|------------5-|-0--------|
||o---------^3---|----1--1----(1)-|---------^3---|-0--------|
||----------^2---|-0-----0----(0)-|---------^2---|-0--------|
||----------^0---|-2-----2----(2)-|---------^0---|-2--------|
||o---------^0---|-2-----3----(3)-|---------^0---|-2--------|
||---------------|-0--------------|--------------|-0--------|


          Dm7    Em                 Dm7    Em    C
                 ~
  H.       E E   W          H.       E E   E. E. H    +E
|------------5-|-0--------|------------5-|----0--0----(0)---||
|---------^3---|-0--------|---------^3---|----1--1----(1)--o||
|---------^2---|-0--------|---------^2---|-0-----0----(0)---||
|---------^0---|-2--------|---------^0---|-2-----2----(2)---||
|---------^0---|-2--------|---------^0---|-2---------------o||
|--------------|-0--------|--------------|-0----------------||


          Dm7    Em                 Dm7
                 ~
  H.       E E   W          H.       E E
|------------5-|-0--------|------------5-|
|---------^3---|-0--------|---------^3---|
|---------^2---|-0--------|---------^2---|
|---------^0---|-2--------|---------^0---|
|---------^0---|-2--------|---------^0---|
|--------------|-0--------|--------------|


  Em                 Dm7    Em    C
  ~
  W          H.       E E   E. E. H    +E
|-0--------|------------5-|----0--0----(0)---|
|-0--------|---------^3---|----1--1----(1)---|
|-0--------|---------^2---|-0-----0----(0)---|
|-2--------|---------^0---|-2-----2----(2)---|
|-2--------|---------^0---|-2----------------|
|-0--------|--------------|-0----------------|


            Dm7    Em    C                  Dm7    Em
                                                   ~
    H.       E E   E. E. H    +E    H.       E E   W
||-------------5-|----0--0----(0)-|------------5-|-0--------|
||o---------^3---|----1--1----(1)-|---------^3---|-0--------|
||----------^2---|-0-----0----(0)-|---------^2---|-0--------|
||----------^0---|-2-----2----(2)-|---------^0---|-2--------|
||o---------^0---|-2--------------|---------^0---|-2--------|
||---------------|-0--------------|--------------|-0--------|


          Dm7    Em                 Dm7    Em    C
                 ~
  H.       E E   W          H.       E E   E. E. H    +E
|------------5-|-0--------|------------5-|----0--0----(0)---||
|---------^3---|-0--------|---------^3---|----1--1----(1)--o||
|---------^2---|-0--------|---------^2---|-0-----0----(0)---||
|---------^0---|-2--------|---------^0---|-2-----2----(2)---||
|---------^0---|-2--------|---------^0---|-2---------------o||
|--------------|-0--------|--------------|-0----------------||


          Dm7    Em    C                  Dm7    Em
                                                 ~
  H.       E E   E. E. H    +E    H.       E E   W
|------------5-|----0--0----(0)-|------------5-|-0--------|
|---------^3---|----1--1----(1)-|---------^3---|-0--------|
|---------^2---|-0-----0----(0)-|---------^2---|-0--------|
|---------^0---|-2-----2----(2)-|---------^0---|-2--------|
|---------^0---|-2--------------|---------^0---|-2--------|
|--------------|-0--------------|--------------|-0--------|


          Dm7    Em    C                  Dm7    Em    C
  H.       E E   E. E. H    +E    H.       E E   E. E. H    +E
|------------5-|----0--0----(0)-|------------5-|----0--0----(0)----|
|---------^3---|----1--1----(1)-|---------^3---|----1--1----(1)----|
|---------^2---|-0-----0----(0)-|---------^2---|-0-----0----(0)----|
|---------^0---|-2-----2----(2)-|---------^0---|-2-----2----(2)----|
|---------^0---|-2--------------|---------^0---|-2-----------------|
|--------------|-0--------------|--------------|-0-----------------|


          Dm7    Em                   Dm7    Em
                 ~                           ~
  H.       E E   W            H.       E E   W
|------------5-|-0--------||-------------5-|-0--------|
|---------^3---|-0--------||o---------^3---|-0--------|
|---------^2---|-0--------||----------^2---|-0--------|
|---------^0---|-2--------||----------^0---|-2--------|
|---------^0---|-2--------||o---------^0---|-2--------|
|--------------|-0--------||---------------|-0--------|


          Dm7    Em    C                  Dm7    Em    C
  H.       E E   E. E. H    +E    H.       E E   E. E. H    +E
|------------5-|----0--0----(0)-|------------5-|----0--0----(0)----||
|---------^3---|----1--1----(1)-|---------^3---|----1--1----(1)---o||
|---------^2---|-0-----0----(0)-|---------^2---|-0-----0----(0)----||
|---------^0---|-2-----2----(2)-|---------^0---|-2-----2----(2)----||
|---------^0---|-2--------------|---------^0---|-2----------------o||
|--------------|-0--------------|--------------|-0-----------------||


            Dm7    Em    C                  Dm7    Em
                                                   ~
    H.       E E   E. E. H    +E    H.       E E   W
||-------------5-|----0--0----(0)-|------------5-|-0--------|
||o---------^3---|----1--1----(1)-|---------^3---|-0--------|
||----------^2---|-0-----0----(0)-|---------^2---|-0--------|
||----------^0---|-2-----2----(2)-|---------^0---|-2--------|
||o---------^0---|-2--------------|---------^0---|-2--------|
||---------------|-0--------------|--------------|-0--------|


          Dm7    Em                 Dm7    Em    C
                 ~
  H.       E E   W          H.       E E   E. E. H    +E
|------------5-|-0--------|------------5-|----0--0----(0)---||
|---------^3---|-0--------|---------^3---|----1--1----(1)--o||
|---------^2---|-0--------|---------^2---|-0-----0----(0)---||
|---------^0---|-2--------|---------^0---|-2-----2----(2)---||
|---------^0---|-2--------|---------^0---|-2---------------o||
|--------------|-0--------|--------------|-0----------------||


          Dm7    Em    C                  Dm7    Em
                                                 ~
  H.       E E   E. E. H    +E    H.       E E   W
|------------5-|----0--0----(0)-|------------5-|-0--------|
|---------^3---|----1--1----(1)-|---------^3---|-0--------|
|---------^2---|-0-----0----(0)-|---------^2---|-0--------|
|---------^0---|-2-----2----(2)-|---------^0---|-2--------|
|---------^0---|-2--------------|---------^0---|-2--------|
|--------------|-0--------------|--------------|-0--------|


          Dm7    Em                 Dm7    Em    C
                 ~
  H.       E E   W          H.       E E   E. E. H    +E
|------------5-|-0--------|------------5-|----0--0----(0)---*|
|---------^3---|-0--------|---------^3---|----1--1----(1)---*|
|---------^2---|-0--------|---------^2---|-0-----0----(0)---*|
|---------^0---|-2--------|---------^0---|-2-----2----(2)---*|
|---------^0---|-2--------|---------^0---|-2----------------*|
|--------------|-0--------|--------------|-0----------------*|



Duration Legend
---------------
W - whole; H - half; Q - quarter; E - 8th; S - 16th; T - 32nd; X - 64th; a - acciaccatura
+ - note tied to previous; . - note dotted; .. - note double dotted
Uncapitalized letters represent notes that are staccato (1/2 duration)
Irregular groupings are notated above the duration line
Duration letters will always appear directly above the note/fret number it represents the
duration for.  Duration letters with no fret number below them represent rests.  Multi-
bar rests are notated in the form Wxn, where n is the number of bars to rest for.  Low
melody durations appear below the staff

Tablature Legend
----------------
 h   - hammer-on
 p   - pull-off
 b   - bend
 pb  - pre-bend
 r   - bend release (if no number after the r, then release immediately)
 /\  - slide into or out of (from/to "nowhere")
 s   - legato slide
 S   - shift slide
 - natural harmonic
[n]  - artificial harmonic
n(n) - tapped harmonic
 ~   - vibrato
 tr  - trill
 T   - tap
 TP  - trem. picking
 PM  - palm muting
\n/  - tremolo bar dip; n = amount to dip
 \n  - tremolo bar down
 n/  - tremolo bar up
/n\  - tremolo bar inverted dip
 =   - hold bend; also acts as connecting device for hammers/pulls
 <> - volume swell (louder/softer)
 x   - on rhythm slash represents muted slash
 o   - on rhythm slash represents single note slash

Misc Legend
-----------
 |  - bar
||  - double bar
||o - repeat start
o|| - repeat end
*|  - double bar (ending)
 :  - bar (freetime)
 $  - Segno
 &  - Coda
Tempo markers -  = BPM(8/16=s8/s16), where s8 = swing 8ths, s16 = swing 16ths

Добавлено: 02.06.2012
Другие материалы по этой песне:

Страница создана 01.04.2012
http://primanota.ru/buckethead/last-train-to-bucketheadland-chords.htm
Привет, Гость.
Предлагаем пройти революционный курс по гитаре.
Подарок от PrimaNota.Ru, забирай!