PrimaNota.ru - самый крупный в мире бесплатный архив песенных текстов, аккордов, табулатур и нот


Buckethead - Korova Binge Bar - таба, видео

Регистрация Запомнить меня
Войти через:  Facebook Google Twitter Vk Yandex Mail.ru

Buckethead - Korova Binge Bar - таба, видео

Печатать
Просмотров: 136
Уроки эстрадного вокала в Санкт-Петербурге
Buckethead/Korova Binge Bar/Island of Lost Minds
Standard Tuning
              x4                 x4    x12
-12-----12-16b-  -20b-18b-17b-11b-  ----|
--11---11------  -----------------  ----|
---10-10-------  -----------------  ----|
----11---------  -----------------  -22-|
---------------  -----------------  -22-|
---------------  -----------------  -00-|

----14-14-14---17-17-17---20-20-20---17-17-17-----|
----13-13-13---16-16-16---19-19-19---16-16-16-----|
----12-12-12---15-15-15---18-18-18---15-15-15-----|
-222--------222--------222--------222---------222-|
-222--------222--------222--------222---------222-|
-000--------000--------000--------000---------000-|

-14-14-14---17-17-17-20-20-20-20-21-21-21-21-22-22-|
-13-13-13---16-16-16-19-19-19-19-20-20-20-20-21-21-|
-12-12-12---15-15-15-18-18-18-18-19-19-19-19-20-20-|
---------222--------2------------------------------|
---------222--------2------------------------------|
---------000--------0------------------------------|

-22-22-23-23-23-23-|
-21-21-22-22-22-22-|
-20-20-21-21-21-21-|
-------------------|
-------------------|
-------------------|

Bass...
Then:                x40
-18p17p16p15h16h17h18-|
----------------------|
----------------------|
----------------------|
----------------------|
----------------------|

I am only calling this tab the intro because most
of the rest of the song seems like unstructured,
random notes. Some parts however are structured,
like these:

2:15:
---------------------|
---------------------|
---------------------|
---------------------|
---------------------|
-777-7777-7777-77778-|

3:10 all of a suddenly sounds happy because it
follows the key of Bb melodically.

3:27:
---------------------------------|
---------------------------------|
---------------------------------|
-999910101010999xxxxxxxxxxxxxxxx-|
-999910101010999xxxxxxxxxxxxxxxx-|
-77778-8-8-8-777xxxxxxxxxxxxxxxx-|

3:44 is the usual Buckethead guitar lick. I don't
know what it is, but you Buckethead fans know what
I'm talking about. So if you get Buckethead tabs
often, you might happen to know the lick.

Outro:           x?
-7-8-7-5-7-8-10-9-    ----|
------------------    ----|
------------------    ----|
------------------    -22-|
------------------    -22-|
------------------    -00-|

Any other time gaps are random notes.
(Don't make the random notes like noise rock
effect random, but avant-garde random. It should sound
atonal, rye, and tasteless. :) Yay!)

Sorry if the other parts are structured, but this is
how I hear it.
Добавлено: 24.07.2012
Другие материалы по этой песне:
  • Аккорды и текст

Страница создана 24.07.2012
http://primanota.ru/buckethead/korova-binge-bar-chords.htm
Привет, Гость.
Предлагаем пройти революционный курс по гитаре.
Подарок от PrimaNota.Ru, забирай!