PrimaNota.ru - самый крупный в мире бесплатный архив песенных текстов, аккордов, табулатур и нот


Buckethead - Goro Vs Art - таба, видео

Регистрация Запомнить меня
Войти через:  Facebook Google Twitter Vk Yandex Mail.ru

Buckethead - Goro Vs Art - таба, видео

Печатать
Просмотров: 269
Intro: x2
E------------------------------------------------------------------------|
B------------------------------------------------------------------------|
G------------------------------------------------------------------------|
D-----------------------7^----------7^----------7^----------7^-----------|
A-----------------------7^----------7^----------7^----------7^-----------|
E---0--0--0--0----0--0--------0--0--------0--0--------0--0---------------|

(at this point, Buckethead uses plenty of palm muting)
x3
E-------------------------------------------------------------------------|
B-------------------------------------------------------------------------|
G-------------------------------------------------------------------------|
D---PM-------------------PM---------------PM--------------------PM--------|
A--7-7-7-7-7h8-7h8---7-7-7-7-7h8-10p8---7-7-7-7-7h8-7h8---7-7-7-7-7-7-7-7-|
E-------------------------------------------------------------------------|

(00:42) x4 |---------------------------------------------------| (stop here 4th time through)
E-----------------|-----------------|--------------|-----------|
B-----------------|-----------------|--------------|-----------|
G---12---14---16--|--12---14---17---|-12---14---16-|--12---14--|
D-----------------|-----------------|--------------|-----------|
A-----------------|-----------------|--------------|-----------|
E-----------------|-----------------|--------------|-----------|

Guitar Solo: I tried, honestly...I'm really not good at solos like this, try yourself
E-------------------------------------------------------------------------|
B-------------------------------------------------------------------------|
G-------------------------------------------------------------------------|
D-------------------------------------------------------------------------|
A-------------------------------------------------------------------------|
E-------------------------------------------------------------------------|

(01:38)
E------------------------------------------------------------------------|
B------------------------------------------------------------------------|
G------------------------------------------------------------------------|
D-----------------------7^----------7^----------7^-----------------------|
A-----------------------7^----------7^----------7^-----------------------|
E---0--0--0--0----0--0--------0--0--------0--0--------0--0----0--0-------|

E-------------------------------------------------------------------------|
B-------------------------------------------------------------------------|
G-------------------------------------------------------------------------|
D-------------------------------------------------------------------------|
A-------------------------------------------------------------------------|
E--0--0--2--2--3--3--4--4-------------------------------------------------|

(02:02)
(just mute the strings and strum the rhythm)
E--x---
B--x---
G--x---
D--x---
A--x---
E--x---

(fades in and remains until end)
E-------------------------------------------------------------------------|
B-------------------------------------------------------------------------|
G-------------------------------------------------------------------------|
D-------------------------------------------------------------------------|
A---7-7-7-7-9-9-9-9-7-7-7-7-9-9-9-9-----(repeat over and over)------------|
E-------------------------------------------------------------------------|

(02:15 - end)
E-----------------|-----------------|--------------|-------------|
B-----------------|-----------------|--------------|-------------|
G---12---14---16--|--12---14---17---|-12---14---16-|--12---14----|
D-----------------|-----------------|--------------|-------------|
A-----------------|-----------------|--------------|-------------|
E-----------------|-----------------|--------------|-------------|

last chord
E--------|
B--------|
G--------|
D--------|
A--4--4--|
E--2--2--|
Добавлено: 01.04.2012
Другие материалы по этой песне:
  • Аккорды и текст

Страница создана 01.04.2012
http://primanota.ru/buckethead/goro-vs-art-chords.htm
Привет, Гость.
Предлагаем пройти революционный курс по гитаре.
Подарок от PrimaNota.Ru, забирай!