PrimaNota.ru - самый крупный в мире бесплатный архив песенных текстов, аккордов, табулатур и нот


Buckethead - Giant Robot Live - таба, видео

Регистрация Запомнить меня
Войти через:  Facebook Google Twitter Vk Yandex Mail.ru

Buckethead - Giant Robot Live - таба, видео

Печатать
Просмотров: 190
This is the tab to the song Giant Robot
Performed by Praxis live in Poland
It took me a while to get the middle section right because its different to the studio version
And he has his back to the camera a lot
There might be a few mistakes but other than that it's dead on
Please post anything you might needs to be changed
Here's the video as well http://www.youtube.com/watch?v=X4ERx6pwTGQ
It's one of the best live versions of Giant Robot so I thought I'd tab it
E||----------------------------------------------||
B||------------------------------3---------------||
G||--------------------4~~-2-4-5----5—4~SLIDE----||
D||---------2---5-4-2---------------------AND----||
A||--2-3-2------------------------------BEND-----||
E||----------------------------------------------||

E||----------------------------------------------||
B||----------------------------------------------||
G||-----------------------4h-2h-4p-2~------------||
D||--------2h—--5h—4p-2hF--------------5-4-4-2~~-||
A||--2-3-2---------------------------------------||
E||----------------------------------------------||
                      
E||----------------------------------------------||
B||----------------------------------------------||
G||---------4-2-4-0-0-0-0-0-4-4-5-7-7-7-5-4-7—5F~||
D||-0-0-0-0--------------------------------------||
A||----------------------------------------------||
E||----------------------------------------------||

E||----------------------------------------------||
B||----------------------------------------------||
G||-5-5-5-5-7-5-7-4-7---2-2-4-2-0----------------||
D||-------------------0--------------------------||
A||----------------------------------------------||
E||----------------------------------------------||

E||-----------------------------------SLIDE TWICE||
B||-----5~~5-5-5-5-3~~3---------------SLIDE TWICE||
G||-0-0-----------------5-5-5-5-5-4~~-SLIDE TWICE||
D||-----------------------------------SLIDE TWICE||
A||-----------------------------------SLIDE TWICE||
E||-----------------------------------SLIDE TWICE|| 

E||----------------------------------------------||
B||-----5~~-5-5-5-5-5-3-3-3---2-2-4-2-0----------||
G||-0-0---------------------0--------------------||
D||----------------------------------------------||
A||------------------------------------S12-TO-2--||
E||----------------------------------------------||

E||----------------------------------------------||
B||------------------------------3---------------||
G||--------------------4~~-2-4-5----5—4~---------||
D||---------2---5-4-2F---------------------------||
A||--2-3-2---------------------------------------||
E||----------------------------------------------||
   [________ALL HAMMER-ONS/PULL-OFS___________]

E||-----------------------------------------------------||
B||-----------------------------------------------------||
G||-----------------------4h-2h-4p2h4p2h4p2h------------||
D||--------2h—--5h—4p-2h----------------------5-4-4-2~~-|| 
A||--2-3-2----------------------------------------------||
E||-----------------------------------------------------||
   [_HAMMER-ONS/PULL-OFS_]
E||----------------------------------------------||
B||---HOLD-LAST-NOTE-----------------------------||
G||---LOTS-OF-FEEDBACK---------------------------||
D||---LOTS-OF-VIBRATO-AND-BENDING----------------||
A||----------------------------------------------||
E||----------------------------------------------||
ENJOY!
Добавлено: 20.05.2012
Другие материалы по этой песне:
  • Аккорды и текст

Страница создана 20.05.2012
http://primanota.ru/buckethead/giant-robot-live-chords.htm
Привет, Гость.
Предлагаем пройти революционный курс по гитаре.
Подарок от PrimaNota.Ru, забирай!