PrimaNota.ru - самый крупный в мире бесплатный архив песенных текстов, аккордов, табулатур и нот


Buckethead - Enter The Dragon - таба, видео

Регистрация Запомнить меня
Войти через:  Facebook Google Twitter Vk Yandex Mail.ru

Buckethead - Enter The Dragon - таба, видео

Печатать
Просмотров: 119
Enter the Dragon

by Simon Nam

Drum part...
e||--------------------||----x-x-x------------|------------------|
B||--------------------||----x-x-x------------|------------------|
G||*------------------*||----x-x-x------------|------------------|
D||*------------------*||---------------------|------------------|
A||--------------------||---------------------|------------------|
E||--------------------||---------------------|------------------|

lets get started :)
|--------------------|-------------------|------------------|
|--------------------|-------------------|------------------|
|--------------------|-------------------|------------------|
|--------------------|-------------------|------------------|
|--------------------|--7----------------|------------------|
|--------------17/---|--5----------------|------------------|

|----------------------|------------------|-------------------|
|----------------------|------------------|-------------------|
|----------------------|------------------|-------------------|
|----------------------|------------------|--6----------------|
|--10--12/-------------|------------------|--7----------------|
|--8---10/-------------|------------------|--5----------------|

|------------------|--------------12------10--|------7----------5--|
|------------------|--------------12------10--|------7----------5--|
|------------------|--------------------------|--------------------|
|------------------|--------------------------|--------------------|
|------------------|--12--14/-----------------|--------------------|
|------------------|--10--12/-----------------|--------------------|

|--8--8/10-------------------|---------------------|-------------------|
|--8--8/10-------------------|---------------------|-------------------|
|----------------------------|---------------------|-------------------|
|----------------------------|----6----------------|----------6--------|
|-----------------10/12--10--|----7--------7----7--|-------------------|
|-----------------8/-10--8---|----5--------5----5--|-------------------|

                     Feedback
|------------------|-------------------|------------------|
|------------------|-------------------|------------------|
|------------------|-------------------|------------------|
|------------------|--6b---------------|------------------|
|------------------|-------------------|------------------|
|------------------|-------------------|------------------|

|-------------------------|-----------------------|-----------------------|
|-------------------------|-----------------------|-----------------------|
|-------------------------|-----------------------|-----------------------|
|-------------------------|-----------------------|-----------------------|
|-------------------------|--7--7----7------------|--7--7----7------------|
|------12/--1/17/---0--3--|--5--5----5------0--3--|--5--5----5------0--3--|

|-----------------------|-----------------------|-----------------------|
|-----------------------|-----------------------|-----------------------|
|-----------------------|-----------------------|-----------------------|
|-----------------------|-----------------------|-----------------------|
|--7--7----7------------|--7--7----7------------|--7--7----7------------|
|--5--5----5------0--3--|--5--5----5------0--3--|--5--5----5------0--3--|

                                                    "solo-part"
|-----------------------|-----------------------|------------------------|
|-----------------------|-----------------------|------------------------|
|-----------------------|-----------------------|---------------------5--|
|-----------------------|-----------------------|---------------5/-7-----|
|--7--7----7------------|--7--7----7------------|--7--7----7-------------|
|--5--5----5------0--3--|--5--5----5------0--3--|--5--5----5-------------|

|--5-----------------|--------------------|--------------------|
|--5-----------------|--------------------|--8------7~---------|
|---------8~---------|------------5-------|--------------------|
|--------------------|-----------------7--|--------------------|
|--------------------|--------------------|--------------------|
|--------------------|--------------------|--------------------|

|--------------------|----------------------|----------------------|
|--------------------|--5-------------------|--8------7----5-------|
|-----------------5--|---------8~---5-------|-------------------5--|
|------------7-------|-------------------7--|----------------------|
|--------------------|----------------------|----------------------|
|--------------------|----------------------|----------------------|

|--7------5-----------|--5-------------------|--7------5------------|
|------------------5--|-------------------5--|--------------5-------|
|---------------------|----------------5-----|-------------------5--|
|---------------------|-------------7--------|----------------------|
|---------------------|----------------------|----------------------|
|---------------------|----------------------|----------------------|

|---------------------|--7---7h8--7--5---5------|------------------------|
|--8~-----7~-------5--|------------------5------|--8~-----7-----------5--|
|---------------------|----------------------5--|---------------4--5-----|
|---------------------|-------------------------|------------7-----------|
|---------------------|-------------------------|------------------------|
|---------------------|-------------------------|------------------------|

     Kill Switch
|-----------------------------------|---------------------------------|
|--4~-------------------------------|---------------------------------|
|-----------------------------------|---------------------------------|
|-----------------------------------|---------------------------------|
|-----------------------------------|------------------------3/5--3---|
|-----------------------------------|---------------------------------|

   + Delay - Delay
|-----------------------|-----------------------|-----------------------|
|-----------------------|-----------------------|-----------------------|
|-----------------------|-----------------------|-----------------------|
|-----------------------|-----------------------|-----------------------|
|--7--7----7------------|--7--7----7------------|--7--7----7------------|
|--5--5----5------0--3--|--5--5----5------0--3--|--5--5----5------0--3--|

|-----------------------|-----------------------|-----------------------|
|-----------------------|-----------------------|-----------------------|
|-----------------------|-----------------------|-----------------------|
|-----------------------|-----------------------|-----------------------|
|--7--7----7------------|--7--7----7------------|--7--7----7------------|
|--5--5----5------0--3--|--5--5----5------0--3--|--5--5----5------0--3--|

the same as the first solo part just an octave up
|-----------------------|---------------------------|------------------------|
|-----------------------|---------------------------|--17~-------------------|
|-----------------------|-----------------------17--|----------20--20~-------|
|-----------------------|---------------17/-19------|------------------------|
|--7--7----7------------|--7--7----7----------------|------------------------|
|--5--5----5------0--3--|--5--5----5----------------|------------------------|

|----------------------|----------------------|----------------------|
|----------------------|--20~-----19~---------|----------------------|
|------------17--------|----------------------|------------------17--|
|------------------19--|----------------------|------------19--------|
|----------------------|----------------------|----------------------|
|----------------------|----------------------|----------------------|

|--------------------------|--------------------------|--19~-----17~---------|
|--17~---------------------|--20~-----19~---17--------|----------------------|
|----------20~---17--------|----------------------17--|----------------------|
|----------------------19--|--------------------------|----------------------|
|--------------------------|--------------------------|----------------------|
|--------------------------|--------------------------|----------------------|

|--17----------------------|--19------17----17--------|------------------------|
|----------------------17--|----------------17--------|--20~-----19~-------17--|
|------------------17--17--|----------------------17--|------------------------|
|--------------19----------|--------------------------|------------------------|
|--------------------------|--------------------------|------------------------|
|--------------------------|--------------------------|------------------------|

|--19b-----19--17------------|--------------------------|
|-------------------17---17--|--20~-----19/-------------|
|------------------------17--|--------------------------|
|----------------------------|-----------------------2--|
|----------------------------|--------------0--2--3-----|
|----------------------------|--------------------------|

     Kill Switch
|-----------------------------------|---------------------------------|
|-----------------------------------|---------------------------------|
|-----------------------------------|---------------------------------|
|--1~-------------------------------|---------------------------------|
|-----------------------------------|------------------------3/5--3---|
|-----------------------------------|---------------------------------|

|---------17~-----17~---|--17~---------------------|-------------------|
|-----------------------|--------------------------|-------------------|
|-----------------------|--------------------------|-------------------|
|-----------------------|-----------------------2--|--1~---------------|
|--0--------------------|--------19/---0--2--3-----|-------------------|
|-----------------------|--------------------------|-------------------|

|---------11~-----11~---|
|-----------------------|
|--8~-------------------|
|-----------------------|
|-----------------------|
|-----------------------|

       Pickslide
|--11~----------------------------------------------------------------------|
|---------------------------------------------------------------------------|
|---------------------------------------------------------------------------|
|---------------------------------------------------------------------------|
|---------------------------------------------------------------------------|
|----------24-23-22-21-20-19-18-17-16-15-13-12-11-10-9-8-7-6-5-4-3-2--17~---|

                            + Delay               - Delay
|---------------------|-----------------------|-----------------------|
|---------------------|-----------------------|-----------------------|
|---------------------|-----------------------|-----------------------|
|---------------------|-----------------------|-----------------------|
|------------3/5--3---|--7--7----7------------|--7--7----7------------|
|---------------------|--5--5----5------0--3--|--5--5----5------0--3--|

|-----------------------|-----------------------|-------------------------|
|-----------------------|-----------------------|-------------------------|
|-----------------------|-----------------------|-------------------------|
|-----------------------|-----------------------|-------------------------|
|--7--7----7------------|--7--7----7------------|---------------7----6h---|
|--5--5----5------0--3--|--5--5----5------17/---|--5~-----7--8------------|

|---------------------------------------||
|---------------------------------------||
|---------------------------------------||
|---------------------------------------||
|--7h6h7h6h7h6h7h6h7h6~--------------7--||
|----------------------------5-5-5-5-5--||

ok, so here it is...pretty easy song, but I love to play it especially as an "intro" 
when you are nervous you shouldn't start with shred ;-) I play the "solo-part" with some 
Big B normally plays it just with distortion.
if there is something wrong feel free to correct and pm me but it should be all right
Добавлено: 23.06.2012
Другие материалы по этой песне:

Страница создана 15.05.2012
http://primanota.ru/buckethead/enter-the-dragon-chords.htm
Привет, Гость.
Предлагаем пройти революционный курс по гитаре.
Подарок от PrimaNota.Ru, забирай!