PrimaNota.ru - самый крупный в мире бесплатный архив песенных текстов, аккордов, табулатур и нот


Buckethead - Electronic Slight Of Hand - таба, видео

Регистрация Запомнить меня
Войти через:  Facebook Google Twitter Vk Yandex Mail.ru

Buckethead - Electronic Slight Of Hand - таба, видео

Печатать
Просмотров: 128
Song: Electronic Slight of Hand                             
Artist: Buckethead
Album: Crime Slunk Scene

      KILL SWITCH                                                 
      PM          PM PM PM PM PM PM PM PM PM PM PM PM PM PM PM    
      S           S  S  S  S  S  S  S  S  S  S  S  S  S  S  S   4x
D#||------------------------------------------------------------||
A#||------------------------------------------------------------||
F#||------------------------------------------------------------||
C#||------------------------------------------------------------||
G#||-----------------------1--1--0--0--3--3--1--1--0--0--1--1---||
D#||--0-----------0--0--0---------------------------------------||
A#||------------------------------------------------------------||


  Q    E  Q    E  E  E   3x   S   E  S  S  E  S  S   E  S  S  E  S  
-------------------------||--14S-15----14-15----14S-15----14-15----|
-------------------------||--13S-14----13-14----13S-14----13-14----|
--4-------4--------------||--11S-12----11-12----11S-12----11-12----|
--3-------3--------------||----------------------------------------|
--2-------2--------------||----------------------------------------|
-------0-------0--0--0---||----------------------------------------|
-------------------------||----------------------------------------|


    Q      Q      Q      Q     4x  E  S S S S S S S S S S S S S S  
|------------------------------||---------------------------------|
|------------------------------||---------------------------------|
|---------14S-----------14-----||---------------------------------|
|--13S----14S----13S----14-----||-------0-------0-------x-3-0-----|
|--12S----13S----12S----13-----||-----------x-3---------------3-0-|
|--11S----12S----11S----12-----||---------------------------------|
|--11S-----------11S-----------||--3------------------------------|


  E  S S S S S S S  E  S S  E  S  4x
----------------------------------||
----------------------------------||
----------------------------------||
-------0---------------L----------||
-----------------6S-5----6S-5-----||
-----------x-1-3-4S-3--L-4S-3-----||
--3-------------------------------||


  PM PM PM PM PM PM PM PM PM PM PM PM PM PM PM PM PM PM PM PM PM PM PM PM  
  |--3--|  |--3--|  |--3--|  |--3--|  |--3--|  |--3--|  |--3--|  |--3--|   
  S  S  S  S  S  S  S  S  S  S  S  S  S  S  S  S  S  S  S  S  S  S  S  S   
--------------------------------------------------------------------------|
--------------------------------------------------------------------------|
--0--0--0-----------1--1--1-----------2--2--2-----------3--3--3--0--0--0--|
-----------2--2--2-----------3--3--3-----------4--4--4--------------------|
--------------------------------------------------------------------------|
--------------------------------------------------------------------------|
--------------------------------------------------------------------------|


  E  E  E  E  E  E  E  E   3x
---------------------------||
-----4-----4-----4-----4---||
--2--2--2--2--2--2--2--2---||
--1--1--1--1--1--1--1--1---||
--0-----0-----0-----0------||
---------------------------||
---------------------------||


  PM PM PM PM PM PM PM PM PM PM PM PM PM PM PM PM PM PM PM PM PM PM PM PM  
  |--3--|  |--3--|  |--3--|  |--3--|  |--3--|  |--3--|  |--3--|  |--3--|   
  S  S  S  S  S  S  S  S  S  S  S  S  S  S  S  S  S  S  S  S  S  S  S  S   
--------------------------------------------------------------------------|
--------------------------------------------------------------------------|
--0--0--0-----------1--1--1-----------2--2--2-----------3--3--3--0--0--0--|
-----------2--2--2-----------3--3--3-----------4--4--4--------------------|
--------------------------------------------------------------------------|
--------------------------------------------------------------------------|
--------------------------------------------------------------------------|


  PM PM PM PM PM PM PM PM PM PM PM PM    PM    PM PM PM PM PM PM PM PM PM  
  |--3--|  |--3--|  |--3--|  |--3--|           |--3--|  |--3--|  |--3--|   
  E  E  E  E  E  E  E  E  E  E  E  E     E  E  E  E  E  E  E  E  E  E  E   
--------------------------------------|-----------------------------------|
--------------------------------------|-----------------------------------|
--2--1--0--1--0-----0-----------------|--------2--1--0--1--0-----0--------|
--2--1--0--1--0--4--0--4--3--4--3--2--|--1-----2--1--0--1--0--4--0--4--3--|
-----------------4-----4--3--4--3--2--|--1--------------------4-----4--3--|
--------------------------------------|-----------------------------------|
--------------------------------------|-----------------------------------|


  PM PM PM PM    PM PM PM PM PM PM    PM PM PM PM PM PM PM    PM PM PM  
  |--3--|        |--3--|  |--3--|     |--3--|  |--3--|        |--3--|   
  E  E  E  E  E  E  E  E  E  E  E     E  E  E  E  E  E  E  E  E  E  E   
-----------------------------------|-----------------------------------|
-----------------------------------|-----------------------------------|
-----------------2--1--0--1--0-----|--0-----------------------2--1--0--|
--4--3--2--1-----2--1--0--1--0--4--|--0--4--3--4--3--2--1-----2--1--0--|
--4--3--2--1--------------------4--|-----4--3--4--3--2--1--------------|
-----------------------------------|-----------------------------------|
-----------------------------------|-----------------------------------|


  PM PM PM PM PM PM PM PM PM PM                                 
  |--3--|  |--3--|  |--3--|                                     
  E  E  E  E  E  E  E  E  E  E  E      E  E  E  E  E  E  E  E   
-----------------------------------||--------------------------|
-----------------------------------||--------------------------|
--1--0-----0-----------------------||--------------0-----0--2--|
--1--0--4--0--4--3--4--3--2--1-----||-----2--3--2-----3-----0--|
--------4-----4--3--4--3--2--1-----||--0--0--1--0--3--1--3-----|
-----------------------------------||--------------------------|
-----------------------------------||--3-----------------------|


  E  E  E  E  E  E  Q     4x  Q      Q    Q    E  E     E  E  E  Q    E  Q     
--------------------------||-------------------------|---------------------|
--------------------------||-------------------------|---------------------|
-----2--------------------||-------------------------|---------------------|
--5--0--5--3--5--3--2-----||-------4g2----0-------0--|--L------------------|
--3-----3--1--3--1--0-----||-------------------3-----|-----3--0------------|
--------------------------||--5----------------------|-----------1----3--1-|
--------------------------||--3----------------------|---------------------|


  Q      Q    Q    E  E     E    E  E  Q    Q.        
-------------------------|--------------------------||
-------------------------|--------------------------||
-------------------------|-----4g2--0---------------||
-------4g2----0-------0--|--L----------3----2-------||
--0----------------3-----|--------------------------||
-------------------------|--------------------------||
--3----------------------|--------------------------||


     PM PM PM    PM PM PM    PM PM PM    PM PM PM  
     |--3--|     |--3--|     |--3--|     |--3--|   
  E  S  S  S  E  S  S  S  E  S  S  S  E  S  S  S   
--5-----------5-----------5-----------5-----------|
--6-----------6-----------6-----------6-----------|
--7-----------7-----------7-----------7-----------|
-----0--0--0-----0--0--0-----0--0--0--------------|
-----------------------------------------7--7--7--|
--------------------------------------------------|
--------------------------------------------------|


     PM PM PM    PM PM PM    PM PM PM    PM PM PM  
     |--3--|     |--3--|     |--3--|     |--3--|   
  E  S  S  S  E  S  S  S  E  S  S  S  E  S  S  S   
--3-----------3-----------3-----------3-----------|
--5-----------5-----------5-----------5-----------|
--5-----------5-----------5-----------5-----------|
-----2--2--2-----2--2--2-----2--2--2-----3--3--3--|
--------------------------------------------------|
--------------------------------------------------|
--------------------------------------------------|


     PM PM PM    PM PM PM    PM PM PM    PM PM PM  
     |--3--|     |--3--|     |--3--|     |--3--|   
  E  S  S  S  E  S  S  S  E  S  S  S  E  S  S  S   
--5-----------5-----------5-----------5-----------|
--6-----------6-----------6-----------6-----------|
--5-----------5-----------5-----------5--3--3--3--|
-----3--3--3-----3--3--3-----3--3--3--------------|
--------------------------------------------------|
--------------------------------------------------|
--------------------------------------------------|

   
      |--3--|      |--3--|      |--3--|      |--3--|     
   E  S  S  S   E  S  S  S   E  S  S  S   E  S  S  S     
--10-----------10-----------10-----------10------------||
--11-----------11-----------10-----------10------------||
---x------------x------------x------------x------------||
---8--8--8--8---8--7--7--7---7--7--7--7---7--0--0------||
---------------------------------------------------5---||
-------------------------------------------------------||
-------------------------------------------------------||

   
  |--3--|       |--3--|       |--3--|       |--3--|        
  S  S  S  S  S S  S  S  S  S S  S  S  S  S S  S  S  S  S  
----------------------------------------------------------|
----------------------------------------------------------|
----------------------------------------------------------|
--0--0--0--0----0--0--0--0----0--0--0--0----0--0--0--0----|
----------------0--0--0--0----0--0--0--0----0--0--0--0----|
----------------------------------------------------------|
----------------------------------------------------------|


  |--3--|       |--3--|       |--3--|       |--3--|        
  S  S  S  S  S S  S  S  S  S S  S  S  S  S S  S  S  S  S  
----------------------------------------------------------|
----------------------------------------------------------|
----------------------------------------------------------|
------------------------------2--2--2--2------------------|
--5--5--5--5----5--5--5--5----0--0--0--0----3--3--3--3----|
--3--3--3--3----3--3--3--3------------------1--1--1--1----|
----------------------------------------------------------|


   
  |--3--|       |--3--|       |--3--|       |--3--|        
  S  S  S  S  S S  S  S  S  S S  S  S  S  S S  S  S  S  S  
----------------------------------------------------------|
----------------------------------------------------------|
----------------------------------------------------------|
--0--0--0--0----0--0--0--0----0--0--0--0----0--0--0--0----|
--0--0--0--0----0--0--0--0----0--0--0--0----0--0--0--0----|
----------------------------------------------------------|
----------------------------------------------------------|

   
  |--3--|       |--3--|       |--3--|       |--3--|        
  S  S  S  S  S S  S  S  S  S S  S  S  S  S S  S  S  S  S  
----------------------------------------------------------|
----------------------------------------------------------|
----------------------------------------------------------|
------------------------------2--2--2--2------------------|
--5--5--5--5----5--5--5--5----0--0--0--0----3--3--3--3----|
--3--3--3--3----3--3--3--3------------------1--1--1--1----|
----------------------------------------------------------|


    Q     Q     Q     Q        Q     E   E   Q     Q       
|--17----------------17----|----------------------16-----||
|--15----15----15----15----|--11----17--16--15----15-----||
|--------14----14----------|--14----14--14--14----14-----||
|--------------------------|--12----12--12--12-----------||
|--------------------------|-----------------------------||
|--------------------------|-----------------------------||
|--------------------------|-----------------------------||


  S  S  S  S  S  S  S  S S S S S S S S S    S S S S S S S S S S S S S S E   4x
------------------------------------0-----|--1-------1-----3-----1---0-1-0||
----------------------------------3---3---|-------------------------------||
--------------------------7---------------|-------------------------------||
--12----------12-------10---0-0-0-------0-|----0-0-0---0-0---0-0---0------||
------------------------------------------|-------------------------------||
-----------------10-10--------------------|-------------------------------||
-----15-15-15-----------------------------|-------------------------------||


  W                 
-------------------|
-------------------|
-------------------|
--0----------------|
--0----------------|
-------------------|
--3----------------|


  |--3-|  |--3--|  |--3--|  |--3--|  |--3--|  |--3--|  |--3--|  |--3--|   
  S S  S  S  S  S  S  S  S  S  S  S  S  S  S  S  S  S  S  S  S  S  S  S   
-------------------------------------------------------------------------|
-------------------------------------------------------------------------|
--2----------------------------------------------------------------------|
----0--0--3--0--0--3--0--0--3--0--0--3--0--0--3--0--0--------2--------2--|
-------------------------------------------------------4--4-----4--4-----|
-------------------------------------------------------------------------|
-------------------------------------------------------------------------|

  
  |--3-|  |--3--|  |--3--|  |--3--|  |--3-|  |--3-|  |--3-|  |--3-|   
  S S  S  S  S  S  S  S  S  S  S  S  S S  S  S S  S  S S  S  S S  S   
---------------------------------------------------------------------|
-------------------------------------1---------------3---------------|
--2------------------------------------------2---------------2-------|
----0--0--3--0--0--3--0--0--3--0--0----0--0----0--0-------2-------2--|
-------------------------------------------------------4-------4-----|
---------------------------------------------------------------------|
---------------------------------------------------------------------|


  |--3-|  |--3--|  |--3--|  |--3--|  |--3--|  |--3--|  |--3--|  |--3--|   
  S S  S  S  S  S  S  S  S  S  S  S  S  S  S  S  S  S  S  S  S  S  S  S   
-------------------------------------------------------------------------|
-------------------------------------------------------------------------|
--2----------------------------------------------------------------------|
----0--0--3--0--0--3--0--0--3--0--0--3--0--0--3--0--0--------2--------2--|
-------------------------------------------------------4--4-----4--4-----|
-------------------------------------------------------------------------|
-------------------------------------------------------------------------|


  PM PM PM PM PM PM PM PM PM PM PM PM PM                                      
  |--3--|  |--3--|  |--3--|  |--3--|                                          
  S  S  S  S  S  S  S  S  S  S  S  S  S    E  S S E  S    E  H        Q.      
-------------------------------------------------------|-------------------|
-------------------------------------------------------|-------------------|
-------------------------------------------------------|-------------------|
--------0--------0--------0--------0-----2g0-----------|-------------------|
--3--3-----3--3-----3--3-----3--3-----3-------3-0----0-|--L--0--------L----|
--------------------------------------------------3----|-------------------|
-------------------------------------------------------|-----3--------L----|

Duration Legend
---------------
W - whole
H - half
Q - quarter
E - 8th
S - 16th
T - 32nd
X - 64th
. - note dotted
|-n-|  - n-tuplets


Tablature Legend
----------------
L - tied note
x - dead note
g - grace note
(n) - ghost note
> - accentuded note
NH - natural harmonic
AH - artificial harmonic
TH - tapped harmonic
SH - semi harmonic
PH - pitch harmonic
h - hammer on
p - pull off
b - bend
br - bendRelease
pb - preBend
pbr - preBendRelease
brb - bendReleaseBend
\n/ - tremolo bar dip
\n - tremolo bar dive
-/n - tremolo bar Release up
/n\ - tremolo bar inverted dip
/n - tremolo bar return
-\n - tremolo bar Release down
S - shift slide
s - legato slide
/ -  slide into from below or out of upwards
\ -  slide into from above or out of downwards
~ - vibrato
W - wide vibrato
tr - trill
TP - tremolo picking
T - tapping
S - slap
P - pop
< - fade in
^ - brush up
v - brush down
Добавлено: 25.03.2012
Другие материалы по этой песне:

Страница создана 25.03.2012
http://primanota.ru/buckethead/electronic-slight-of-hand-chords.htm
Привет, Гость.
Предлагаем пройти революционный курс по гитаре.
Подарок от PrimaNota.Ru, забирай!