PrimaNota.ru - самый крупный в мире бесплатный архив песенных текстов, аккордов, табулатур и нот


Buckethead - Electric Tears - таба, видео

Регистрация Запомнить меня
Войти через:  Facebook Google Twitter Vk Yandex Mail.ru

Buckethead - Electric Tears - таба, видео

Печатать
Просмотров: 379
Уроки эстрадного вокала в Санкт-Петербурге
Electric Tears
--------------
By: Buckethead
Tabbed by: Mike Medrek

Tuning: Standard

Note:
This is a slow song just consisting of: Pattern, pause, pattern, pause, etc
============================================

-------------14-18-|
-------------------|
-------13-15-------|   X 4
----13-------------|
-11----------------|

-------------------|
-------------------|
----------15-------|
-------16----------|
-14-16-------------|
-------------------|

=============================================
Play twice:

-------------14-18-|
-------------------|
-------13-15-------|   X 2
----13-------------|
-11----------------|

-------------------|
-------------------|
----------15-------|
-------16----------|
-14-16-------------|
-------------------|

============================================

-------------14-18-|
-------------------|
-------13-15-------|   X 2
----13-------------|
-11----------------|

============================================
Play 3x:

-------------------|
-------------------|
-15----------------|
-------------------|
----13-------------|
-11----14-13-------|

-------------------|
-------------------|
-15----------------|
----------------13-|
---13--------------|
-9----14-13--------|

-------------------|
-------------------|
-10----------------|
----11-------------|
-------9-----------|
-7-------(9)-------| (3rd time only)

============================================

-------------------|
-------------------|
-15----------------|
-------------------|   X 2
-------------------|
-11-14-13----------|

-------------------|
-11----------------|
-------------------|
-----8-------------|
---9---8-----------|
-9-----------------|

-------------------|
-------------------|
-10----------------|
----11-------------|
-------9-8---------|
-------------------|

-------------------|
-------------------|
-------------------|
-------11----------|
---8-9-------------|
-7-----------------|

-------------------|
-------------------|
-15----------------|
-------------------|
----13-------------|
-11----14-13--(13)-|

-------------------|
-------------------|
-15----------------|
-------------------|
----13-------------|
-9-----14-13-------|


-------------------|
-------------------|
-10----------------|
----11-------------|
-------9-----------|
-------------------|

-------------------|
-------------------|
-15----------------|
-------------------|
-------------------|
-11-14-13----------|

-------------------|
-------------------|
-15----------------|
-------------------|
----13-------------|
-9-----14-13-------|

-------------------|
-------------------|
-10----------------|
----11-------------|
-------9-----------|
-------------------|

------------------- ----------|
------------------- ----------|
------------------- ----------|
-------------11-15- ----------|
----13------------- ------13--|
-11----13-14------- ---11-----|

-------------------|
-------------------|
----------18-------|
----15-16----------|
-14----------------|
-----------------9-|

-------------------|
-------------------|
----------18-------|
----15-16----------|
-14----------------|
-------------------|

-------------------|
-------------------|
-18----------------|  X 2
----16-15----------|
----------14-------|
-------------------|

-------------------|
-------------------|
-18----------------|
----16-15----------|
----------13-------|
-------------------|

-------------------|
-------6-8---------|
-------------------|
-------------------|
---6-9-------------|
-7-----------------|

Rake:
-------------------|
-------------------|
-8-----------------|
-x-----------------|
-9-----------------|
-7-----------------|
Добавлено: 15.03.2012
Другие материалы по этой песне:

Страница создана 15.03.2012
http://primanota.ru/buckethead/electric-tears-chords.htm
Привет, Гость.
Предлагаем пройти революционный курс по гитаре.
Подарок от PrimaNota.Ru, забирай!