PrimaNota.ru - самый крупный в мире бесплатный архив песенных текстов, аккордов, табулатур и нот


Buckethead - Dawn Appears - таба, видео

Регистрация Запомнить меня
Войти через:  Facebook Google Twitter Vk Yandex Mail.ru

Buckethead - Dawn Appears - таба, видео

Печатать
Просмотров: 231
Title : Dawn Appears
Album : A Real Diamond In The Rough
Artist: Buckethead
Tuning: 1/2 step down
Tabbed by: vickrg470
NOTE  : the 6** is actually D note played on lower string. not sure if bucket used 7 
or drop tuning.

1:24-
-------------------------------------------------------------------------------|
-------------------------------------------------------------------------------|
---------------------------------------------------------8-8(8)(8)(8)(8)-8h9p8-|
----8-9-----8-9----8-9----8-9--11p9-9~------8-9-----8-9--6---------------------|
-11------11------9------7----------------11------11----------------------------|
-------------------------------------------------------------------------------|


-------------------------------------------------------------------------------|
-------------------------------------------------------------------------------|
------------------11--6h8p6--8-(8)-8h9-8-9/11----------------------------------|
----8-9-----8-9---11--------------------------8hp9-----------------------------|
-11------11-------9--------------------------------11-------------------6**----|
------------------------------------------------------9h11p9-7--7-6-6-2---2/4--|

-----------------------------------------------------------------------------|
-----------------------------------------------------------------------------|
-----------------------------------------------------------------------------|
------------------------8---8h9-11p9-11/13-----------------------------------|
-6-6-6h7p6-------6-6-9----9--------------------------------------------------|
-----------4-4/7-------------------------------------------------------------|


-----------------------------------------------------------------------------|
-----------------------------------------------------------------------------|
-13-11-13--------------------------------------------------------------------|
----------11h13-13/16-14h16p14/13-14-----------------------------------------|
-------------------------------------14---13---------------------------------|
---------------------------------------------14--9h11------------------------|


-----------------------------------------------------------------------------|
------------------------11h12p11---------------------------------------------|
---------13-11-------11---------11-------------------------------------------|
----8-9--13-------13----------------13-------------------------8h9-11/13-----|
-11------11----------------------------13h14p13-11--9--------11--------------|
------------------------------------------------------7-9/11-----------------|


-----------------------------------------------------------------------------|
-----------------------------------------------------------------------------|
-13-13-13---16-16-16p15-15-15-15h16-16-16---15-15-15h16-16-16-16p15----------|
-13--------------------------------------------------------------------------|
-11--------------------------------------------------------------------------|
-----------------------------------------------------------------------------|


-----------------------------------------------------------------------------|
-----------------------------------------------------------------------------|
-15-15--11-11--13---16-16-16p15-15-15-15h16-16-16-16p15-15-15-16-18-20-20----|
-----------------------------------------------------------------------------|
-----------------------------------------------------------------------------|
-----------------------------------------------------------------------------|


-----------------------------------------------------------------------------|
-----------------------------------------------------------------------------|
-16-16-15-11-----------------------------------------------------------------|
-------------11h12---11h12-11-9----------8-9-11-9----------------------------|
--------------------------------11\9--11-------------------------------------|
-----------------------------------------------------------------------------|


-----------------------------------------------------------------------------|
-----------------------------------------------------------------------------|
---11-11h13----11-11h13----11-11h13----h13---h13------11---------------------|
-9-----------9-----------9-----------11----11----11\9----9-9\8---------------|
-----------------------------------------------------------------------------|
-----------------------------------------------------------------------------|


-----------------------------------------------------------------------------|
-----------------------------------------------------------------------------|
-----------------------------------------------------------------------------|
-8/9-9--8h9-8-------------------------------------------------8h9-9/11-------|
--------------11-9/11-9------------9-------------9/11-----9h11---------9/11--|
------------------------11p9-7h9-7---7-6--2-4--7------9h11-------------------|


--------------------14-------------------------------------------------------|
-15b(15b)(15b)(15b)----15b---12-11-11-11h12p11-------------------------------|
-----------------------------------------------13---13-13--11-11--9-9--------|
-----------------------------------------------------------------------------|
-----------------------------------------------------------------------------|
-----------------------------------------------------------------------------|


-----------------------------------------------------------------------------|
-----------------------------------------------------------------------------|
-8------------------------------------------------11-------------------------|
---9p8-8-6-6------9-11/13--14-13----------------9----------------------------|
---------------11-----------------11-11-11\9-11------------------------------|
-----------------------------------------------------------------------------|


-----------------------------------------11----------------------------------|
--------------------------------11-11--9----9-9------------------------------|
-9p8-8-h9p8-8----9p8-8-h9p8-8------------------------------------------------|
-----------------------------------------------------------------------------|
-----------------------------------------------------------------------------|
-----------------------------------------------------------------------------|
Добавлено: 04.07.2012
Другие материалы по этой песне:

Страница создана 07.03.2012
http://primanota.ru/buckethead/dawn-appears-chords.htm
Привет, Гость.
Предлагаем пройти революционный курс по гитаре.
Подарок от PrimaNota.Ru, забирай!