PrimaNota.ru - самый крупный в мире бесплатный архив песенных текстов, аккордов, табулатур и нот


Buckethead - Baptism Of Solitude - таба, видео

Регистрация Запомнить меня
Войти через:  Facebook Google Twitter Vk Yandex Mail.ru

Buckethead - Baptism Of Solitude - таба, видео

Печатать
Просмотров: 168
                             Baptism Of Solitude

                                     by

                                 BUCKETHEAD

tuning: half step down

Intro
E|:---7-------------------7----7h9------------------------:|
B|:--------7------------------------7---9-----------------:|
G|:-------------------------------------------------------:|repeat 1x
D|:-------------------------------------------------------:|
A|:-------------------------------------------------------:|
E|:---0----0--(0)(0)(0)---0----0----0--(0)---0------------:|

 (slight change here!)
E|----7-------------------7----7h9------------------|
B|---------7-h-9--------------------7---9-----------|
G|---------8----------------------------------------|
D|--------------------------------------------------|
A|--------------------------------------------------|
E|----0----0---0--0-0-0---0----0----0---------------|

 0.33

Rythm guitar

E|--0--------0--------0-------0----------2--------2-------2-------2--------|
B|----4--------4--------4-------4----------4--------4-------4-------4------|
G|------6--------6--------6-------6----------6--------6-------6-------6----|
D|--------6--------6--------6-------6----------6--------6-------6-------6--|
A|-------------------------------------------------------------------------|
E|-------------------------------------------------------------------------|

Lead Guitar (over rythm)

E|--------------------------------------------------------------------|
B|--------------------------------------------------------------------|
G|------9p8~--9--------------------------------------11-13~hb~--------|
D|--11----------9~---9h11----------------11--14p13--------------------|
A|------------------------9h11~-------11------------------------------|
E|--------------------------------------------------------------------|

E|---------------------------------------------------------------|
B|---------------------------------------------------------------|
G|----------13h14p13p11/13~-----13h14p13-16-14h16p14p13----(13)--|
D|------11-------------------------------------------------------|
A|---11----------------------------------------------------------|
E|---------------------------------------------------------------|

                     (rythm plays two measures less and stops at E-2-
E|----------------------------------------------------------------|
B|----------------------------------------------------------------|
G|--13h14p13~------11--11--9--8---8~~-----------------------------|
D|----------------------------------------------------------------|
A|----------------------------------------------------------------|
E|----------------------------------------------------------------|

then here it's back to the intro part ,
only this time the second guitar plays along
and when the intro is repeated 1 time
the lead plays a bit different. 
for the correct timing check out my powertab version

E---------7--9--12--11---7--

i still have to finish the rest of the song.

PLEASE RATE!! And comment
Добавлено: 13.08.2013
Другие материалы по этой песне:
  • Аккорды и текст

Страница создана 13.08.2013
http://primanota.ru/buckethead/baptism-of-solitude-chords.htm
Привет, Гость.
Предлагаем пройти революционный курс по гитаре.
Подарок от PrimaNota.Ru, забирай!