PrimaNota.ru - самый крупный в мире бесплатный архив песенных текстов, аккордов, табулатур и нот


Buckethead - Asylum Of Glass - таба, видео

Регистрация Запомнить меня
Войти через:  Facebook Google Twitter Vk Yandex Mail.ru

Buckethead - Asylum Of Glass - таба, видео

Печатать
Просмотров: 166
Asylum Of Glass
Buckethead
Decoding The Tomb Of Bansheebot

|------------------------------------------|
|-------------9h10p9-----------------------|
|----------9------------9------------------|
|------11----------------11----------------|
|----9-----------------------9-------------|
|------------------------------------------|

|------------------------------------------|
|------------------------------------------|
|--------------9h11p9----------------------|
|-----------9------------9-----------------|
|-------11-----------------11--------------|
|----9--------------------------9----------|

|------------------------------------------|
|------------------------------------------|
|-------------14s13------------14s13-------|
|------------------------------------------|
|--------12----------------12--------------|
|----10----------------10------------------|

|------------------------------------------|
|-------------9h10p9-----------------------|
|----------9------------9------------------|
|------11-----------------11---------------|
|----9-----------------------9-------------|
|------------------------------------------|

|------------------------------------------|
|------------------------------------------|
|--------------9h11p9----------------------|
|-----------9------------9-----------------|
|-------11-----------------11--------------|
|----9--------------------------9----------|

|------------------------------------------|
|------------------------------------------|
|------------------------------------------|
|------------11-12-------------------------|
|--------12--------------------------------|
|----10------------------------------------|

|------------------------------------------|
|-------------9h10p9-----------------------|
|----------9------------9------------------|
|------11-----------------11---------------|
|----9-----------------------9-------------|
|------------------------------------------|

|------------------------------------------|
|------------------------------------------|
|--------------9h11p9----------------------|
|-----------9------------9-----------------|
|-------11-----------------11--------------|
|----9--------------------------9----------|

|------------------------------------------|
|------------------------------------------|
|-------------14s13------------14s13-------|
|------------------------------------------|
|--------12----------------12--------------|
|----10----------------10------------------|

|------------------------------------------|
|-------------9h10p9-----------------------|
|----------9------------9------------------|
|------11-----------------11---------------|
|----9-----------------------9-------------|
|------------------------------------------|

|------------------------------------------|
|------------------------------------------|
|--------------9h11p9----------------------|
|-----------9------------9-----------------|
|-------11-----------------11--------------|
|----9--------------------------9----------|

|------------------------------------------|
|------------------------------------------|
|------------------------------------------|
|------------11-12-------------------------|
|--------12--------------------------------|
|----10------------------------------------|

|-----------------------------------------|
|-----------------------------------------|
|---11---11---9--9----6--6-----9---7------|
|---7----7----6--6----2--2-----6---4------|
|---9----9----7--7----4--4-----7---5------|
|-----------------------------------------|

|------------------------------------------|
|------------------------------------------|
|---11---11----9--9---6--6---7-------------|
|---7----7----6--6----2--2----4------------|
|---9----9----7--7----4--4----5------------|
|------------------------------------------|

|-----------------------------------------|
|-----------------------------------------|
|---11---11---9--9----6--6-----9---7------|
|---7----7----6--6----2--2-----6---4------|
|---9----9----7--7----4--4-----7---5------|
|-----------------------------------------|

|------------------------------------------|
|------------------------------------------|
|---11--11----9--9----6--6----7------------|
|---7----7----6--6----2--2----4------------|
|---9----9----7--7----4--4----5------------|
|------------------------------------------|

|-------------------------------------------------------|
|-----------------------------2-3-2---------------------|
|---------------------1---------------2--4--1--2--------|
|---4-------------2-----2--------------------------4----|
|------4-------4----------------------------------------|
|---------2--5------------------------------------------|

|-----------------4----2--------------------2h4h5p4p2---|
|-------------5-----5----5---------------3--------------|
|---------4----------------------------2----------------|
|--2--6-----------------------------4-------------------|
|---------------------------------5---------------------|
|-------------------------------------------------------|

|-------------------------------------------------------|
|-----------------------------2-3-2---------------------|
|---------------------1---------------2--4--1--2--------|
|---4-------------2-----2--------------------------4----|
|------4-------4----------------------------------------|
|---------2--5------------------------------------------|

|-----------------4----2--------------------2h4h5p4p2---|
|-------------5-----5----5---------------3--------------|
|---------4----------------------------2----------------|
|--2--6-----------------------------4-------------------|
|---------------------------------5---------------------|
|-------------------------------------------------------|

|-------------------------------------------------------|
|-----------------------------2-3-2---------------------|
|---------------------1---------------2--4--1--2--------|
|---4-------------2-----2--------------------------4----|
|------4-------4----------------------------------------|
|---------2--5------------------------------------------|

|-----------------4----2--------------------2h4h5p4p2---|
|-------------5-----5----5---------------3--------------|
|---------4----------------------------2----------------|
|--2--6-----------------------------4-------------------|
|---------------------------------5---------------------|
|-------------------------------------------------------|

|-----------------------------4--------------|
|---------------------3-------5--------------|
|---------------------2----------------------|
|------4--------4-----0----------------------|
|------4--------4-----0----------------------|
|----0h2------0h2----------------------------|

|-----------------------------4--------------|
|---------------------3-------5--------------|
|---------------------2----------------------|
|------4--------4-----0----------------------|
|------4--------4-----0----------------------|
|----0h2------0h2----------------------------|

|-----------------------------4--------------|
|---------------------3-------5--------------|
|---------------------2----------------------|
|------4--------4-----0----------------------|
|------4--------4-----0----------------------|
|----0h2------0h2----------------------------|

|-----------------------------4--------------|
|---------------------3-------5--------------|
|---------------------2----------------------|
|------4--------4-----0----------------------|
|------4--------4-----0----------------------|
|----0h2------0h2----------------------------|

|-----------2-2------4-4-----4-5-4------|
|--2-2------3-3------2-2-----5-5-5------|
|--2-2------2-2------4-4-----4-4-4------|
|--4-4------4-4------2-2----------------|
|--4-4------5-5------2-2----------------|
|--2-2------2-2-------------------------|

|-----------2-2------4-4-----4-5-4------|
|--2-2------3-3------2-2-----5-5-5------|
|--2-2------2-2------4-4-----4-4-4------|
|--4-4------4-4------2-2----------------|
|--4-4------5-5------2-2----------------|
|--2-2------2-2-------------------------|

|-----------2-2------4-4-----4-5-4------|
|--2-2------3-3------2-2-----5-5-5------|
|--2-2------2-2------4-4-----4-4-4------|
|--4-4------4-4------2-2----------------|
|--4-4------5-5------2-2----------------|
|--2-2------2-2-------------------------|

|-----------2-2------4-4-----4-5-4------|
|--2-2------3-3------2-2-----5-5-5------|
|--2-2------2-2------4-4-----4-4-4------|
|--4-4------4-4------2-2----------------|
|--4-4------5-5------2-2----------------|
|--2-2------2-2-------------------------|

|-----------------------------------|
|-----------------------------------|
|-----------------------------------|
|-----4---7----7----9---------------|
|-----4---5----4----7---------------|
|-----2-----------------------------|

|-----------------------------------|
|-----------------------------------|
|-----------------------------------|
|-----4---7----7----9---------------|
|-----4---5----4----7---------------|
|-----2-----------------------------|

|----------------------------------------------------------------------|
|----------------------------------------------------------3-2---------|
|----------------------------4-2---------------------------------------|
|--------------4----------------------------------4--------------------|
|----------------------------------------------------------------------|
|--0h2-2----------2-2-------------0h2-2---------------2-2--------------|

|-------------------------------------------------------4h5p4----------|
|-----------------------------------------------------------------5----|
|---------------------------4-2----------------------------------------|
|-------------4---------------------------------4----------------------|
|----------------------------------------------------------------------|
|--0h2-2---------2-2--------------0h2-2--------------------------------|

|----------------------------------------------------------------------|
|----------------------------------------------------------3-2---------|
|----------------------------4-2---------------------------------------|
|--------------4----------------------------------4--------------------|
|----------------------------------------------------------------------|
|--0h2-2----------2-2-------------0h2-2---------------2-2--------------|

|-------------------------------------------------------4h5p4----------|
|-----------------------------------------------------------------5----|
|---------------------------4-2----------------------------------------|
|-------------4---------------------------------4----------------------|
|----------------------------------------------------------------------|
|--0h2-2---------2-2--------------0h2-2--------------------------------|

|-----------------------------4--------------|
|---------------------3-------5--------------|
|---------------------2----------------------|
|------4--------4-----0----------------------|
|------4--------4-----0----------------------|
|----0h2------0h2----------------------------|

|-----------------------------4--------------|
|---------------------3-------5--------------|
|---------------------2----------------------|
|------4--------4-----0----------------------|
|------4--------4-----0----------------------|
|----0h2------0h2----------------------------|

|-----------------------------4--------------|
|---------------------3-------5--------------|
|---------------------2----------------------|
|------4--------4-----0----------------------|
|------4--------4-----0----------------------|
|----0h2------0h2----------------------------|

|-----------------------------4--------------|
|---------------------3-------5--------------|
|---------------------2----------------------|
|------4--------4-----0----------------------|
|------4--------4-----0----------------------|
|----0h2------0h2----------------------------|


|--------------0---9---------9--------------------------------------------|
|--12-10-------------12----------12-10--------10--------10----------------|
|--11-11-----------------------------------11--------11-------------------|
|-------------------------------------------------------------------------|
|-------------------------------------------------------------------------|
|-------------------------------------------------------------------------|


|--------------0---9---------9--------------------------------------------|
|--12-10-------------12----------12-10--------10--------10----------------|
|--11-11-----------------------------------11--------11-------------------|
|-------------------------------------------------------------------------|
|-------------------------------------------------------------------------|
|-------------------------------------------------------------------------|


|--------------0---9---------9--------------------------------------------|
|--12-10-------------12----------12-10--------10--------10----------------|
|--11-11-----------------------------------11--------11-------------------|
|-------------------------------------------------------------------------|
|-------------------------------------------------------------------------|
|-------------------------------------------------------------------------|


|--------------0---9---------9--------------------------------------------|
|--12-10-------------12----------12-10--------10--------10----------------|
|--11-11-----------------------------------11--------11-------------------|
|-------------------------------------------------------------------------|
|-------------------------------------------------------------------------|
|-------------------------------------------------------------------------|

|------------------------------------------------------------16-17--------|
|---------------------14----------------------------------------------17--|
|--------13----------------16-14-13----------13---------------------------|
|-----16----------------------------------16------------------------------|
|--16----------16---------------------16----------16----------------------|
|-------------------------------------------------------------------------|

|------------------------------------------------------------------------|
|-----------------14-----------------------------------------------------|
|--------13------------16-14-13-----------13-----------------------------|
|-----16-------------------------------16------------12--16--------------|
|--16--------16---------------------16----------16-------------14--------|
|------------------------------------------------------------------------|

|------------------------------------------------------------16-17--------|
|---------------------14----------------------------------------------17--|
|--------13----------------16-14-13----------13---------------------------|
|-----16----------------------------------16------------------------------|
|--16----------16---------------------16----------16----------------------|
|-------------------------------------------------------------------------|

|------------------------------------------------------------------------|
|-----------------14-----------------------------------------------------|
|--------13------------16-14-13-----------13-----------------------------|
|-----16-------------------------------16------------12--16--------------|
|--16--------16---------------------16----------16-------------14--------|
|------------------------------------------------------------------------|

|---------------------------------------------------|
|---------------------------------------------------|
|----------------------------------------2----------|
|--4p2---2h4---4p2---2h4---4p2---2h4-----2----------|
|----------------------------------------0----------|
|------2-----2-----2-----2-----2--------------------|

|-----------------------------------------------------|
|-----------------------------------------------------|
|-----------------------------------------------------|
|--4p2---2h4---4p2---2h4---4p2---2h4------4-----------|
|-----------------------------------------------------|
|------2-----2-----2-----2-----2------2---------------|

|---------------------------------------------------|
|---------------------------------------------------|
|----------------------------------------2----------|
|--4p2---2h4---4p2---2h4---4p2---2h4-----2----------|
|----------------------------------------0----------|
|------2-----2-----2-----2-----2--------------------|

|-----------------------------------------------------|
|-----------------------------------------------------|
|-----------------------------------------------------|
|--4p2---2h4---4p2---2h4---4p2---2h4------4-----------|
|-----------------------------------------------------|
|------2-----2-----2-----2-----2------2---------------|

|-------------------------------------------------------|
|-------------------------------------------------------|
|-------------------------------------------------------|
|--7p4---4h7---9p6---6h9---11p7---7h11---14p11----11h14-|
|------4-----------7------------9--------------12-------|
|-------------------------------------------------------|

|-------------------------------------------------------|
|-------------------------------------------------------|
|-------------------------------------------------------|
|--7p4---4h7---9p6---6h9---11p7---7h11---14p11----11h14-|
|------4-----------7------------9--------------12-------|
|-------------------------------------------------------|

|-------------------------------------------------|
|-------------------------------------------------|
|-------------------------------------------------|
|--7p4---4h7---7p4---4h7---6p2---2h6---6p2---2h6--|
|------5-----------5-----------4-----------4------|
|-------------------------------------------------|

|-------------------------------------------------|
|-------------------------------------------------|
|-------------------------------------------------|
|--7p4---4h7--7p4---4h7--6p2----2h6--6p2---2h6----|
|------5-----------5----------4----------4--------|
|-------------------------------------------------|

|-------------------------------------------------|
|-------------------------------------------------|
|-------------------------------------------------|
|--6p2---2h6--6p2---------------------------------|
|------4----------4-------------------------------|
|-------------------------------------------------|

|---------------------------------------------------|
|---------------------------------------------------|
|----------------------------------------2----------|
|--4p2---2h4---4p2---2h4---4p2---2h4-----2----------|
|----------------------------------------0----------|
|------2-----2-----2-----2-----2--------------------|

|-----------------------------------------------------|
|-----------------------------------------------------|
|-----------------------------------------------------|
|--4p2---2h4---4p2---2h4---4p2---2h4------4-----------|
|-----------------------------------------------------|
|------2-----2-----2-----2-----2------2---------------|


Tabbed by Titch2011 :)
Enjoy
Добавлено: 05.08.2013
Другие материалы по этой песне:
  • Аккорды и текст

Страница создана 05.08.2013
http://primanota.ru/buckethead/asylum-of-glass-chords.htm
Привет, Гость.
Предлагаем пройти революционный курс по гитаре.
Подарок от PrimaNota.Ru, забирай!