PrimaNota.ru - самый крупный в мире бесплатный архив песенных текстов, аккордов, табулатур и нот


Buckethead - Andrew Henrys Meadow - таба, видео

Регистрация Запомнить меня
Войти через:  Facebook Google Twitter Vk Yandex Mail.ru

Buckethead - Andrew Henrys Meadow - таба, видео

Печатать
Просмотров: 122
Tuning: Eb-Ab-Db-Gb-Bb-Eb

This is my favorite song off Buckethead's Shadows Between the Sky.
Enjoy!

Intro: 00:00-00:15 x2

Eb|--------------|-------------|-------------|-------------|
Bb|--------0-----|-------0-----|-------0-----|-------0-----|
Gb|----7-----7---|---7-----7---|---5-----5---|---5-----5---|
Db|-9----9-----9-|-7---7-----7-|-5---5-----5-|-5---5-----5-|
Ab|-10-----------|-9-----------|-7-----------|-7-----------|
Eb|--------------|-------------|-------------|-------------|

Part 1: 00:15-00:29

Eb|-------------------------------------------------------------------|
Bb|-------------------------------------------------------------------|
Gb|-------------------------------------------------------------------|
Db|-12h14--p12-12--10-10--12-9----------------12/14-14--12-12p10-10p9-|
Ab|-----------------------------10--10h12p10--------------------------|
Eb|-------------------------------------------------------------------|

Part 2: 00:30-00:46

Eb|--------------------------------------------|
Bb|-12p10-12-----------------------------------|
Gb|----------9--12-11-12/14--12p11-11h12-------|
Db|--------------------------------------12-12-|
Ab|--------------------------------------------|
Eb|--------------------------------------------|

Eb|--------------------------------------------------------|
Bb|--------------------------------------------------------|
Gb|-------12h14/16--14h16p14\12-11-11--h12-----------------|
Db|-12h14----------------------------------12--14-12h14p12-|
Ab|--------------------------------------------------------|
Eb|--------------------------------------------------------|

Drums: 00:46-00:49

Repeat Intro: 00:49-01:03 x2

Part 3: 01:03-01:18

Eb|-----------------------|---------------------|
Bb|-----------------------|---------------------|
Gb|-----------------------|---------------------|
Db|-14\12-12---9--10-10p9-|-14\12-12---9--10-10-|
Ab|-----------------------|---------------------|
Eb|-----------------------|---------------------|

Part 4: 01:18-01:36
Eb|------------------------------------------|---------------------------------|
Bb|----20p19-19------------------------------|----20p19-19---------------------|
Gb|-16----------19--14-14--14h16-12\11-11-12-|-16----------19-14--16-12--11-12-|
Db|------------------------------------------|---------------------------------|
Ab|------------------------------------------|---------------------------------|
Eb|------------------------------------------|---------------------------------|

Part 5: 01:37-01:55

Eb|------------------------|-----------------------|
Bb|----8----10--8p7h8p7-10-|----8----10--8p7h8-8---|
Gb|------11----------------|------11---------------|
Db|-12---------------------|-12------------------9-|
Ab|------------------------|-----------------------|
Eb|------------------------|-----------------------|

Eb|------------------------|--------------------------------------|
Bb|----8----10--8p7h8p7-10-|----8----10--8p7h8-8------------------|
Gb|------11----------------|------11----------------7---7---7---7-|
Db|-12---------------------|-12------------------9----9---9---9---|
Ab|------------------------|--------------------------------------|
Eb|------------------------|--------------------------------------|

Part 6: 01:56-02:36

Eb|--------------------------------------|--------------------------------------|
Bb|-10--7--------------------------------|-10--7--------------------------------|
Gb|--------7h9-7------7------------------|--------7h9-7------7------------------|
Db|---------------7h9---10-9--7-7h9-7----|---------------7h9---10-9--7-7h9-7----|
Ab|-----------------------------------10-|-----------------------------------10-|
Eb|--------------------------------------|--------------------------------------|

Eb|-----------------------------------------|--------------------------------------|
Bb|-10--7-----------------------------------|-10--7--------------------------------|
Gb|--------7h9-7------7---------------------|--------7h9-7------7------------------|
Db|---------------7h9---10-9--7-7--7h9p7----|---------------7h9---10-9--7-7h9-7----|
Ab|--------------------------------------10-|-----------------------------------10-|
Eb|-----------------------------------------|--------------------------------------|

Ending silence: 02:36-02:43
Добавлено: 30.06.2013
Другие материалы по этой песне:
  • Аккорды и текст

Страница создана 30.06.2013
http://primanota.ru/buckethead/andrew-henrys-meadow-chords.htm
Привет, Гость.
Предлагаем пройти революционный курс по гитаре.
Подарок от PrimaNota.Ru, забирай!