PrimaNota.ru - самый крупный в мире бесплатный архив песенных текстов, аккордов, табулатур и нот


Buckethead - Allowed To Play - таба, видео

Регистрация Запомнить меня
Войти через:  Facebook Google Twitter Vk Yandex Mail.ru

Buckethead - Allowed To Play - таба, видео

Печатать
Просмотров: 131
Уроки эстрадного вокала в Санкт-Петербурге
Buckethead
Song: Allowed to Play
Album: A Real Diamond in the Rough
Tabbed by: mikef1269

Tune:
Bb Eb Ab Db F b (Low to high, standard tuning down 3 steps)

b--14----------12-------11----------14------12----------11-----------|
F------12-------------------12------------------12-------------------|
Db----------13-------------------11------------------13------13------|
Ab--14-------------------13------------------11----------------------|
Eb-------------------------------------------------------------------|
Bb-------------------------------------------------------------------|

b---11--------0-------------------------9---------9----------------------|
F-------0--------0-----------------0-------0---------------------9-------|
Db---------8--------8-----------6-------------6---------------8-----8----|
Ab--9------------------------7-----------------------------9-------------|
Eb------------------------0-----------------------------7----------------|
Bb------------------------------------------------------0----------------|


b---14----------12-------11----------14-----12-----------11-------------|
F-------12-------------------12-----------------12-----------14---------|
Db----------13-------------------11-----------------13-----------13-----|
Ab--14-------------------13-----------------11-----------------------14-|
Eb----------------------------------------------------------------------|
Bb----------------------------------------------------------------------|

b------------9------0----------------------------------------0------------|
F---------0--------------0------0---0---------------0-------------0-------|
Db-----8---------------------6---------6-------6---------6------------6---|
Ab--9---------------7----------------------7------------------------------|
Eb------------------------------------------------------------------------|
Bb------------------------------------------------------------------------|

b----------------4----------------4--------------------0---------------|
F----------------5----------------4-----------------0-------4----------|
Db-----------4-----------------4-----------------1--------------4------|
Ab--------6-----------------6----------------1-------------------------|
Eb-----7-----------------7---------------------------------------------|
Bb--0-----------------0------------------0-----------------------------|

b---------------0----------------0----------------0------------|
F------------5----------------5-------------------0------------|
Db--------4----------------4------------------2----------------|
Ab-----------------------------------------2-------------------|
Eb--4--4------------2--2---------------0-----------------------|
Bb-------------------------------------------------------------|

b---14----------12------11----------11------12-----------11----0------|
F-------12------------------12-------------------12---------------12--|
Db----------13------------------11-------------------13---------------|
Ab--14------------------13------------------11------------------------|
Eb--------------------------------------------------------------------|
Bb--------------------------------------------------------------------|

b------------9-------0----------------0-----------------------0------------|
F---------0-------0-------------------0-------------------0-------0--------|
Db-----8---------------------------6------------------6----------------6---|
Ab--9---------------------------7-----------------7------------------------|
Eb---------------------------0----------------0----------------------------|
Bb-------------------------------------------------------------------------|

b----------------------------0---------------------|
F-----------------------0--------------------------|
Db-----------------1-------------------------------|
Ab-----------4-------------------------------------|
Eb------2------------------------------------------|
Bb--0----------------------------------------------|
Добавлено: 17.07.2013
Другие материалы по этой песне:
  • Аккорды и текст

Страница создана 17.07.2013
http://primanota.ru/buckethead/allowed-to-play-chords.htm
Привет, Гость.
Предлагаем пройти революционный курс по гитаре.
Подарок от PrimaNota.Ru, забирай!