PrimaNota.ru - самый крупный в мире бесплатный архив песенных текстов, аккордов, табулатур и нот


Buckcherry - Underneath - текст песни, бас-таба, видео

Регистрация Запомнить меня
Войти через:  Facebook Google Twitter Vk Yandex Mail.ru

Buckcherry - Underneath - текст песни, бас-таба, видео

Печатать
Просмотров: 134
Song:Underneath
Artist:Buckcherry
Album:Time Bomb (Track 7)

This Is One Of The Few Songs On The Album That Isn't In Open G Tuning.
Intro:
G|--------------------------------------------|
D|--------------------------------------------|
A|-33333333-----------------------------------|X2
E|----------33333333-11111111-33333333--------|


Verse:
G|------------------------------|
D|-------------------3h5--------|X2
A|-3-3--------------------------|*The Hammer-On Is Only Played The 1st Time.
E|------3-3--1-1-3-3------------|

G|--------------------------------------|
D|--------------------------------------|
A|-33333333-----------------------------|X2
E|----------33333333-11111111-33333333--|

Chorus:
G|------------------------------------------------|
D|------------------------------------------------|
A|-3333~------------5555555555555555--------------|
E|------3333~-1111~-------------------------------|


During The Solo:(Not Sure About This Part)
G|---------------------------------------------|
D|---------------------------------------------|
A|-3-333-------5-555-3-333---------------------|Repeated Several Times
E|-------3-333---------------------------------|


Outro:
G|---------------------------------------------|
D|---------------------------------------------|
A|-455-455-4555555-----------------------------|
E|---------------------------------------------|


Buckcherry Isn't Really Known For Having Complex Bass Lines, But They Are Still An Awesome Band.
www.buckcherry.com
www.myspace.com/buckcherry
Добавлено: 18.05.2012
Другие материалы по этой песне:
  • Аккорды и текст

Страница создана 18.05.2012
http://primanota.ru/buckcherry/underneath-chords.htm
Привет, Гость.
Предлагаем пройти революционный курс по гитаре.
Подарок от PrimaNota.Ru, забирай!